Gruve

Chords

01234567891011121314151617181920212223
E
B
G
D
A
E
B
0 1 2 3 4 5 6 7 8 9 10 11 12 13 14 15 16 17 18 19 20 21 22 23
(/) Slide Up  (\) Slide Down  (h) Hammer On  (p) Pull Off  (b) Bend (r) Release (v) Vibrato

Stave 1:

E|--------------------------------
B|--------------------------------
G|--------------------------------
D|--------------------------------
A|--2--2--5--5-----------2--5--2--
E|--------------2--2--5-----------

Stave 2:

E|--------------
B|--------------
G|--------------
D|--2--4--9--6--
A|--2--4--9--6--
E|--0--2--7--4--

							http://www.guitartabcreator.com
Instruments
{"strings":[[[".",".",".",".",".",".",".",".",".","."],[".",".",".",".",".",".",".",".",".","."],[".",".",".",".",".",".",".",".",".","."],[".",".",".",".",".",".",".",".",".","."],[2,2,5,5,".",".",".",2,5,2],[".",".",".",".",2,2,5,".",".","."]],[[".",".",".","."],[".",".",".","."],[".",".",".","."],[2,4,9,6],[2,4,9,6],[0,2,7,4]]],"numberofstrings":6,"notes":["E","B","G","D","A","E","B"],"capo":0,"stringnotes":["E4","B3","G3","D3","A2","E2"],"comments":["Stave 1:","Stave 2:"],"timing":[["W","W","W","W","W","W","W","W","W","W"],["W","W","W","W"]],"timingvisible":false,"tabcounter":4,"stave":1,"totalstaves":2,"instrument":"6guitar","selectedtuning":"6_standard","version":"13"}

Member for

3 months 1 week
Submitted by goosenotgeese on Wed, 2020-10-07 11:02