Decending

Chords

01234567891011121314151617181920212223
E
B
G
D
A
E
B
0 1 2 3 4 5 6 7 8 9 10 11 12 13 14 15 16 17 18 19 20 21 22 23
(/) Slide Up  (\) Slide Down  (h) Hammer On  (p) Pull Off  (b) Bend (r) Release (v) Vibrato

Stave 1:

E|-----------------------------------
B|-----------------------------------
G|-----------------------------------
D|-----------------------------------
A|-----8-----8-----8--8-----8--8-----
E|--6-----6-----6--------6--------6--

Stave 2:

E|-----------------------------------
B|-----------------------------------
G|-----------------------------------
D|-----------------------------------
A|-----6-----6-----6--6-----6--6-----
E|--4-----4-----4--------4--------4--

Stave 3:

E|-----------------------------------
B|-----------------------------------
G|-----------------------------------
D|-----------------------------------
A|-----4-----4-----4--4-----4--4-----
E|--2-----2-----2--------2--------2--

Stave 4:

E|--------------------
B|--------------------
G|--------------------
D|--------------------
A|-----3-----3--3--1--
E|--1-----1-----------

							http://www.guitartabcreator.com
Instruments
{"strings":[[[".",".",".",".",".",".",".",".",".",".","."],[".",".",".",".",".",".",".",".",".",".","."],[".",".",".",".",".",".",".",".",".",".","."],[".",".",".",".",".",".",".",".",".",".","."],[".",8,".",8,".",8,8,".",8,8,"."],[6,".",6,".",6,".",".",6,".",".",6]],[[".",".",".",".",".",".",".",".",".",".","."],[".",".",".",".",".",".",".",".",".",".","."],[".",".",".",".",".",".",".",".",".",".","."],[".",".",".",".",".",".",".",".",".",".","."],[".",6,".",6,".",6,6,".",6,6,"."],[4,".",4,".",4,".",".",4,".",".",4]],[[".",".",".",".",".",".",".",".",".",".","."],[".",".",".",".",".",".",".",".",".",".","."],[".",".",".",".",".",".",".",".",".",".","."],[".",".",".",".",".",".",".",".",".",".","."],[".",4,".",4,".",4,4,".",4,4,"."],[2,".",2,".",2,".",".",2,".",".",2]],[[".",".",".",".",".","."],[".",".",".",".",".","."],[".",".",".",".",".","."],[".",".",".",".",".","."],[".",3,".",3,3,1],[1,".",1,".",".","."]]],"numberofstrings":6,"notes":["E","B","G","D","A","E","B"],"capo":0,"stringnotes":["E4","B3","G3","D3","A2","E2"],"comments":["Stave 1:","Stave 2:","Stave 3:","Stave 4:"],"timing":[["W","W","W","W","W","W","W","W","W","W","W"],["W","W","W","W","W","W","W","W","W","W","W"],["W","W","W","W","W","W","W","W","W","W","W"],["W","W","W","W","W","W"]],"timingvisible":false,"tabcounter":6,"stave":3,"totalstaves":4,"instrument":"6guitar","selectedtuning":"6_standard","version":"13"}

Member for

2 months 4 weeks
Submitted by goosenotgeese on Wed, 2020-10-14 11:34