bruv

Chords

01234567891011121314151617181920212223
E
B
G
D
A
E
B
0 1 2 3 4 5 6 7 8 9 10 11 12 13 14 15 16 17 18 19 20 21 22 23
(/) Slide Up  (\) Slide Down  (h) Hammer On  (p) Pull Off  (b) Bend (r) Release (v) Vibrato

Capo Fret 2

Stave 1:

E|-----------------------------------------------
B|-----------------------------------------------
G|-----------------------5--5--5-----------------
D|--5--4-----2--2--2--2--7--7--7--5-----5--5--5--
A|--5--4-----2--2--2--2--0--0--0--7-----7--7--7--
E|--3--2--0--0--0--0--0--------------------------

Stave 2:

E|-----------------------------------------------
B|-----------------------------------------------
G|-----------------------------------------------
D|--5--4-----2--2--2--2--5--5--5--7-----7--7--7--
A|--5--4-----2--2--2--2--7--7--7--9-----9--9--9--
E|--3--2--0--0--0--0--0--------------------------

							http://www.guitartabcreator.com
Instruments
{"strings":[[[".",".",".",".",".",".",".",".",".",".",".","_",".",".","."],[".",".",".",".",".",".",".",".",".",".",".","_",".",".","."],[".",".",".",".",".",".",".",5,5,5,".","_",".",".","."],[5,4,".",2,2,2,2,7,7,7,5,"_",5,5,5],[5,4,".",2,2,2,2,0,0,0,7,"_",7,7,7],[3,2,0,0,0,0,0,".",".",".",".","_",".",".","."]],[[".",".",".",".",".",".",".",".",".",".",".","_",".",".","."],[".",".",".",".",".",".",".",".",".",".",".","_",".",".","."],[".",".",".",".",".",".",".",".",".",".",".","_",".",".","."],[5,4,".",2,2,2,2,5,5,5,7,"_",7,7,7],[5,4,".",2,2,2,2,7,7,7,9,"_",9,9,9],[3,2,0,0,0,0,0,".",".",".",".","_",".",".","."]]],"numberofstrings":6,"notes":["E","B","G","D","A","E","B"],"capo":"2","stringnotes":["E4","B3","G3","D3","A2","E2"],"comments":["Stave 1:","Stave 2:"],"timing":[["W","W","W","W","W","W","W","W","W","W","W","W","W","W","W"],["W","W","W","W","W","W","W","W","W","W","W","W","W","W","W"]],"timingvisible":false,"tabcounter":15,"stave":1,"totalstaves":2,"instrument":"6guitar","selectedtuning":"6_standard","version":"13"}

Member for

3 months 1 week
Submitted by goosenotgeese on Tue, 2020-10-20 17:07