blues licks

01234567891011121314151617181920212223
E
B
G
D
A
E
B
0 1 2 3 4 5 6 7 8 9 10 11 12 13 14 15 16 17 18 19 20 21 22 23
(/) Slide Up  (\) Slide Down  (h) Hammer On  (p) Pull Off  (b) Bend (r) Release (v) Vibrato

Stave 1:

E|---------------------------------------------------
B|---------------------------------------------------
G|---------------------------------------------------
D|-----------2--4/5\4--2-----0h2p0-------------------
A|-----2--4---------------4---------4--0--2----------
E|--0----------------------------------------3b---0--

Stave 2:

E|-----------------------------------------
B|-----------------------------------------
G|-----------------------------------------
D|-----0-----0-----0-----0-----------------
A|--5-----5-----3-----3-----2h3p2----------
E|---------------------------------3b---0--

Stave 3:

E|--------------------------
B|--------------------------
G|--------------------------
D|-----5--7--5-----------2--
A|--7-----------7--3--5--0--
E|--------------------------

							http://www.guitartabcreator.com
Chords

Instruments
{"strings":[[[".",".",".",".",".",".",".",".",".",".",".",".",".",".",".",".",".",".",".",".",".","_","."],[".",".",".",".",".",".",".",".",".",".",".",".",".",".",".",".",".",".",".",".",".","_","."],[".",".",".",".",".",".",".",".",".",".",".",".",".",".",".",".",".",".",".",".",".","_","."],[".",".",".",2,4,"/",5,"\\",4,2,".",0,"h",2,"p",0,".",".",".",".",".","_","."],[".",2,4,".",".",".",".",".",".",".",4,".",".",".",".",".",4,0,2,".",".","_","."],[0,".",".",".",".",".",".",".",".",".",".",".",".",".",".",".",".",".",".",3,"b","_",0]],[[".",".",".",".",".",".",".",".",".",".",".",".",".",".",".","_","."],[".",".",".",".",".",".",".",".",".",".",".",".",".",".",".","_","."],[".",".",".",".",".",".",".",".",".",".",".",".",".",".",".","_","."],[".",0,".",0,".",0,".",0,".",".",".",".",".",".",".","_","."],[5,".",5,".",3,".",3,".",2,"h",3,"p",2,".",".","_","."],[".",".",".",".",".",".",".",".",".",".",".",".",".",3,"b","_",0]],[[".",".",".",".",".",".",".","."],[".",".",".",".",".",".",".","."],[".",".",".",".",".",".",".","."],[".",5,7,5,".",".",".",2],[7,".",".",".",7,3,5,0],[".",".",".",".",".",".",".","."]]],"numberofstrings":6,"notes":["E","B","G","D","A","E","B"],"capo":0,"stringnotes":["E4","B3","G3","D3","A2","E2"],"comments":["Stave 1:","Stave 2:","Stave 3:"],"timing":[["W","W","W","W","W",null,"W",null,"W","W","W","W",null,"W","W","W","W","W","W","W",null,"W","W"],["W","W","W","W","W","W","W","W","W",null,"W","W","W","W","W","W","W"],["W","W","W","W","W","W","W","W"]],"timingvisible":false,"tabcounter":7,"stave":2,"totalstaves":3,"instrument":"6guitar","selectedtuning":"6_standard","version":"13"}

Member for

6 months 1 week
Submitted by goosenotgeese on Fri, 2020-12-04 08:41