Bass line#2

01234567891011121314151617181920212223
E
B
G
D
A
E
B
0 1 2 3 4 5 6 7 8 9 10 11 12 13 14 15 16 17 18 19 20 21 22 23
(/) Slide Up  (\) Slide Down  (h) Hammer On  (p) Pull Off  (b) Bend (r) Release (v) Vibrato

Stave 1:

G|----------------------------------
D|--0h2--2--2--0h2--2--2--0h2--0h2--
A|----------------------------------
E|----------------------------------

Stave 2:

G|---------------------------------
D|--0h2--2--2--0h2--2--2--5--4--2--
A|---------------------------------
E|---------------------------------

Stave 3:

G|----------------------------------
D|----------------------------------
A|--0h2--2--2--0h2--2--2--0h2--0h2--
E|----------------------------------

Stave 4:

G|----------------------------------
D|----------------------------------
A|--0h2--2--2--0h2--2--2--0h2--0h2--
E|----------------------------------

Stave 5:

G|----------------------------------------------------------------------------------------------------------
D|----------------------------------------------------------------------------------------------------------
A|----------------------------------------------------------------------------------------------------------
E|--0--0--0--0--0--0--0--0--7--7--7--7--7--7--7--7--10--10--10--10--10--10--10--10--3--3--3--3--3--3--3--3--

							http://www.guitartabcreator.com
Chords

Instruments
{"strings":[[[".",".",".",".",".",".",".",".",".",".",".",".",".",".",".","."],[0,"h",2,2,2,0,"h",2,2,2,0,"h",2,0,"h",2],[".",".",".",".",".",".",".",".",".",".",".",".",".",".",".","."],[".",".",".",".",".",".",".",".",".",".",".",".",".",".",".","."]],[[".",".",".",".",".",".",".",".",".",".",".",".","."],[0,"h",2,2,2,0,"h",2,2,2,5,4,2],[".",".",".",".",".",".",".",".",".",".",".",".","."],[".",".",".",".",".",".",".",".",".",".",".",".","."]],[[".",".",".",".",".",".",".",".",".",".",".",".",".",".",".","."],[".",".",".",".",".",".",".",".",".",".",".",".",".",".",".","."],[0,"h",2,2,2,0,"h",2,2,2,0,"h",2,0,"h",2],[".",".",".",".",".",".",".",".",".",".",".",".",".",".",".","."]],[[".",".",".",".",".",".",".",".",".",".",".",".",".",".",".","."],[".",".",".",".",".",".",".",".",".",".",".",".",".",".",".","."],[0,"h",2,2,2,0,"h",2,2,2,0,"h",2,0,"h",2],[".",".",".",".",".",".",".",".",".",".",".",".",".",".",".","."]],[[".",".",".",".",".",".",".",".",".",".",".",".",".",".",".",".",".",".",".",".",".",".",".",".",".",".",".",".",".",".",".","."],[".",".",".",".",".",".",".",".",".",".",".",".",".",".",".",".",".",".",".",".",".",".",".",".",".",".",".",".",".",".",".","."],[".",".",".",".",".",".",".",".",".",".",".",".",".",".",".",".",".",".",".",".",".",".",".",".",".",".",".",".",".",".",".","."],[0,0,0,0,0,0,0,0,7,7,7,7,7,7,7,7,10,10,10,10,10,10,10,10,3,3,3,3,3,3,3,3]]],"numberofstrings":4,"notes":["G","D","A","E"],"capo":0,"stringnotes":["G2","D2","A1","E1"],"comments":["Stave 1:","Stave 2:","Stave 3:","Stave 4:","Stave 5:"],"timing":[["W",null,"W","W","W","W",null,"W","W","W","W",null,"W","W",null,"W"],["W",null,"W","W","W","W",null,"W","W","W","W","W","W"],["W","W","W","W","W","W",null,"W","W","W","W",null,"W","W",null,"W"],["W",null,"W","W","W","W",null,"W","W","W","W",null,"W","W",null,"W"],["W","W","W","W","W","W","W","W","W","W","W","W","W","W","W","W","W","W","W","W","W","W","W","W","W","W","W","W","W","W","W","W"]],"timingvisible":false,"tabcounter":32,"stave":4,"totalstaves":5,"instrument":"4bass","selectedtuning":"4bass","version":"13"}

Member for

5 months 4 weeks
Submitted by goosenotgeese on Wed, 2021-01-20 13:09