acoustic shred

01234567891011121314151617181920212223
E
B
G
D
A
E
B
0 1 2 3 4 5 6 7 8 9 10 11 12 13 14 15 16 17 18 19 20 21 22 23
(/) Slide Up  (\) Slide Down  (h) Hammer On  (p) Pull Off  (b) Bend (r) Release (v) Vibrato

Stave 1:

E|------------------------------
B|------------------------------
G|-------2-------------5--3--2--
D|--5\3-----3-------3-----------
A|-------------3h5--------------
E|------------------------------

Stave 2:

E|----------------------------
B|----------------------------
G|-------2----------5/7\5--2--
D|--5\3-----3-----------------
A|-------------3h5------------
E|----------------------------

							http://www.guitartabcreator.com
Chords

Instruments
{"strings":[[[".",".",".",".",".",".",".",".",".",".",".","."],[".",".",".",".",".",".",".",".",".",".",".","."],[".",".",".",2,".",".",".",".",".",5,3,2],[5,"\\",3,".",3,".",".",".",3,".",".","."],[".",".",".",".",".",3,"h",5,".",".",".","."],[".",".",".",".",".",".",".",".",".",".",".","."]],[[".",".",".",".",".",".",".",".",".",".",".",".",".","."],[".",".",".",".",".",".",".",".",".",".",".",".",".","."],[".",".",".",2,".",".",".",".",5,"/",7,"\\",5,2],[5,"\\",3,".",3,".",".",".",".",".",".",".",".","."],[".",".",".",".",".",3,"h",5,".",".",".",".",".","."],[".",".",".",".",".",".",".",".",".",".",".",".",".","."]]],"numberofstrings":6,"notes":["E","B","G","D","A","E","B"],"capo":0,"stringnotes":["E4","B3","G3","D3","A2","E2"],"comments":["Stave 1:","Stave 2:"],"timing":[["W",null,"W","W","W","W",null,"W","W","W","W","W","W"],["W","W","W","W","W","W",null,"W","W",null,"W",null,"W","W"]],"timingvisible":false,"tabcounter":14,"stave":1,"totalstaves":2,"instrument":"6guitar","selectedtuning":"6_standard","version":"13"}

Member for

7 months 2 weeks
Submitted by goosenotgeese on Fri, 2021-03-05 18:41