12/11/2020

01234567891011121314151617181920212223
E
B
G
D
A
E
B
0 1 2 3 4 5 6 7 8 9 10 11 12 13 14 15 16 17 18 19 20 21 22 23
(/) Slide Up  (\) Slide Down  (h) Hammer On  (p) Pull Off  (b) Bend (r) Release (v) Vibrato

Stave 1:

E|------------------------
B|------------------------
G|------------------------
D|--2--2--9---9---9---9---
A|--2--2--10--10--10--10--
E|--0--0--0---0---0---0---

Stave 2:

E|------------------------------------
B|------------------------------------
G|------------------------------------
D|---------9h10p9---------2--2--2--2--
A|-----10----------10--8--2--2--2--2--
E|--0---------------------0--0--0--0--

Stave 3:

E|-------------------------------
B|-------------------------------
G|-------------------------------
D|---------9h10p9----------------
A|-----10----------10--8--11--7--
E|--0----------------------------

Stave 4:

E|------------------------------------
B|------------------------------------
G|------------------------------------
D|---------9h10p9---------2--2--2--2--
A|-----10----------10--8--2--2--2--2--
E|--0---------------------0--0--0--0--

Stave 5:

E|--
B|--
G|--
D|--
A|--
E|--

							http://www.guitartabcreator.com
Chords

Instruments
{"strings":[[[".",".",".",".",".","."],[".",".",".",".",".","."],[".",".",".",".",".","."],[2,2,9,9,9,9],[2,2,10,10,10,10],[0,0,0,0,0,0]],[[".",".",".",".",".",".",".",".",".",".",".",".","."],[".",".",".",".",".",".",".",".",".",".",".",".","."],[".",".",".",".",".",".",".",".",".",".",".",".","."],[".",".",9,"h",10,"p",9,".",".",2,2,2,2],[".",10,".",".",".",".",".",10,8,2,2,2,2],[0,".",".",".",".",".",".",".",".",0,0,0,0]],[[".",".",".",".",".",".",".",".",".",".","."],[".",".",".",".",".",".",".",".",".",".","."],[".",".",".",".",".",".",".",".",".",".","."],[".",".",9,"h",10,"p",9,".",".",".","."],[".",10,".",".",".",".",".",10,8,11,7],[0,".",".",".",".",".",".",".",".",".","."]],[[".",".",".",".",".",".",".",".",".",".",".",".","."],[".",".",".",".",".",".",".",".",".",".",".",".","."],[".",".",".",".",".",".",".",".",".",".",".",".","."],[".",".",9,"h",10,"p",9,".",".",2,2,2,2],[".",10,".",".",".",".",".",10,8,2,2,2,2],[0,".",".",".",".",".",".",".",".",0,0,0,0]],[[],[],[],[],[],[]]],"numberofstrings":6,"notes":["E","B","G","D","A","E","B"],"capo":0,"stringnotes":["E4","B3","G3","D3","A2","E2"],"comments":["Stave 1:","Stave 2:","Stave 3:","Stave 4:","Stave 5:"],"timing":[["W","W","W","W","W","W"],["W","W","W",null,"W",null,"W","W","W","W","W","W","W"],["W","W","W",null,"W",null,"W","W","W","W","W"],["W","W","W",null,"W",null,"W","W","W","W","W","W","W"],[]],"timingvisible":false,"tabcounter":0,"stave":4,"totalstaves":5,"instrument":"6guitar","selectedtuning":"6_standard","version":"13"}

Member for

6 months 1 week
Submitted by goosenotgeese on Fri, 2020-12-11 12:28