11/4

01234567891011121314151617181920212223
E
B
G
D
A
E
B
0 1 2 3 4 5 6 7 8 9 10 11 12 13 14 15 16 17 18 19 20 21 22 23
(/) Slide Up  (\) Slide Down  (h) Hammer On  (p) Pull Off  (b) Bend (r) Release (v) Vibrato

Stave 1:

E|--------------------------------------------------------------------------------------
B|--------------------------------------------------------------------------------------
G|--------------------------------------------------------------------6--6--6--6--6--6--
D|---------6-----6-----6---------6-----6-----6---------6-----6-----6--6--6--6--6--6--6--
A|--4/6/7-----0-----0-----4/6/7-----0-----0-----4/6/7-----0-----0-----4--4--4--4--4--4--
E|--------------------------------------------------------------------------------------

Stave 2:

E|---------------------------------------------------------
B|---------------------------------------------------------
G|---------------------------------------6--6--6--6--6--6--
D|---------6--------------------------6--6--6--6--6--6--6--
A|--4/6/7-----7\6\4--4--4/6\2--4/6/7-----4--4--4--4--4--4--
E|---------------------------------------------------------

Stave 3:

E|------------------------------------------------------------------
B|------------------------------------------------------------------
G|------------------------------------------------4--4--4--4--4--4--
D|---------6----------------------------6---------4--4--4--4--4--4--
A|--4/6/7-----7\6\4--4--4--6-----4/6/7-----7\6\4--2--2--2--2--2--2--
E|----------------------------4-------------------------------------

Stave 4:

E|-----------------------------------------------------------------------------------
B|-----------------------------------------------------------------------------------
G|--8--8--8--8--8--8-----------------------------------------------------------------
D|--6--6--6--6--6--6-----8--8--8--8--8--8-----2--2--2--2--2--2-----7--7--7--7--7--7--
A|--4--4--4--4--4--4-----6--6--6--6--6--6-----2--2--2--2--2--2-----7--7--7--7--7--7--
E|-----------------------4--4--4--4--4--4-----0--0--0--0--0--0-----5--5--5--5--5--5--

							http://www.guitartabcreator.com
Chords

Instruments
{"strings":[[[".",".",".",".",".",".",".",".",".",".",".",".",".",".",".",".",".",".",".",".",".",".",".",".",".",".",".",".",".",".",".",".",".",".",".","."],[".",".",".",".",".",".",".",".",".",".",".",".",".",".",".",".",".",".",".",".",".",".",".",".",".",".",".",".",".",".",".",".",".",".",".","."],[".",".",".",".",".",".",".",".",".",".",".",".",".",".",".",".",".",".",".",".",".",".",".",".",".",".",".",".",".",".",6,6,6,6,6,6],[".",".",".",".",".",6,".",6,".",6,".",".",".",".",".",6,".",6,".",6,".",".",".",".",".",6,".",6,".",6,6,6,6,6,6,6],[4,"/",6,"/",7,".",0,".",0,".",4,"/",6,"/",7,".",0,".",0,".",4,"/",6,"/",7,".",0,".",0,".",4,4,4,4,4,4],[".",".",".",".",".",".",".",".",".",".",".",".",".",".",".",".",".",".",".",".",".",".",".",".",".",".",".",".",".",".",".",".",".",".",".","."]],[[".",".",".",".",".",".",".",".",".",".",".",".",".",".",".",".",".",".",".",".",".",".",".",".",".",".",".",".","."],[".",".",".",".",".",".",".",".",".",".",".",".",".",".",".",".",".",".",".",".",".",".",".",".",".",".",".",".","."],[".",".",".",".",".",".",".",".",".",".",".",".",".",".",".",".",".",".",".",".",".",".",".",6,6,6,6,6,6],[".",".",".",".",".",6,".",".",".",".",".",".",".",".",".",".",".",".",".",".",".",".",6,6,6,6,6,6,6],[4,"/",6,"/",7,".",7,"\\",6,"\\",4,4,4,"/",6,"\\",2,4,"/",6,"/",7,".",4,4,4,4,4,4],[".",".",".",".",".",".",".",".",".",".",".",".",".",".",".",".",".",".",".",".",".",".",".",".",".",".",".",".","."]],[[".",".",".",".",".",".",".",".",".",".",".",".",".",".",".",".",".",".",".",".",".",".",".",".",".",".",".",".",".",".",".","."],[".",".",".",".",".",".",".",".",".",".",".",".",".",".",".",".",".",".",".",".",".",".",".",".",".",".",".",".",".",".",".","."],[".",".",".",".",".",".",".",".",".",".",".",".",".",".",".",".",".",".",".",".",".",".",".",".",".",".",4,4,4,4,4,4],[".",".",".",".",".",6,".",".",".",".",".",".",".",".",".",".",".",".",".",".",6,".",".",".",".",".",4,4,4,4,4,4],[4,"/",6,"/",7,".",7,"\\",6,"\\",4,4,4,6,".",4,"/",6,"/",7,".",7,"\\",6,"\\",4,2,2,2,2,2,2],[".",".",".",".",".",".",".",".",".",".",".",".",".",".",4,".",".",".",".",".",".",".",".",".",".",".",".",".",".",".",".","."]],[[".",".",".",".",".",".","_",".",".",".",".",".",".","_",".",".",".",".",".",".","_",".",".",".",".",".","."],[".",".",".",".",".",".","_",".",".",".",".",".",".","_",".",".",".",".",".",".","_",".",".",".",".",".","."],[8,8,8,8,8,8,"_",".",".",".",".",".",".","_",".",".",".",".",".",".","_",".",".",".",".",".","."],[6,6,6,6,6,6,"_",8,8,8,8,8,8,"_",2,2,2,2,2,2,"_",7,7,7,7,7,7],[4,4,4,4,4,4,"_",6,6,6,6,6,6,"_",2,2,2,2,2,2,"_",7,7,7,7,7,7],[".",".",".",".",".",".","_",4,4,4,4,4,4,"_",0,0,0,0,0,0,"_",5,5,5,5,5,5]]],"numberofstrings":6,"notes":["E","B","G","D","A","E","B"],"capo":0,"stringnotes":["E4","B3","G3","D3","A2","E2"],"comments":["Stave 1:","Stave 2:","Stave 3:","Stave 4:"],"timing":[["W",null,"W",null,"W","W","W","W","W","W","W",null,"W",null,"W","W","W","W","W","W","W",null,"W",null,"W","W","W","W","W","W","W","W","W","W","W","W"],["W",null,"W",null,"W","W","W",null,"W",null,"W","W","W",null,"W",null,"W","W",null,"W",null,"W","W","W","W","W","W","W","W"],["W","W","W","W","W","W","W",null,"W",null,"W","W","W","W","W","W",null,"W",null,"W","W","W",null,"W",null,"W","W","W","W","W","W","W"],["W","W","W","W","W","W","W","W","W","W","W","W","W",null,"W","W","W","W","W","W",null,"W","W","W","W","W","W"]],"timingvisible":false,"tabcounter":26,"stave":3,"totalstaves":4,"instrument":"6guitar","selectedtuning":"6_standard","version":"13"}

Member for

4 months 4 weeks
Submitted by goosenotgeese on Wed, 2020-11-04 18:30