bored again

01234567891011121314151617181920212223
E
B
G
D
A
E
B
0 1 2 3 4 5 6 7 8 9 10 11 12 13 14 15 16 17 18 19 20 21 22 23
(/) Slide Up  (\) Slide Down  (h) Hammer On  (p) Pull Off  (b) Bend (r) Release (v) Vibrato

(W|WW) Whole  (H|HH) Half  (Q|QQ) Quarter  (E|EE) 8th (S|SS) 16th  (T|TT) 32nd (X|XX) 64th

Stave 1:
t:  H  H  H  H  H  H  H  H  H  H  H  H  H  H  H  
E|-----------------------------------------------
B|-----------------------------------------------
G|--------------------8-----------------8--------
D|-----6-----6-----6-----6-----6-----6-----6-----
A|--7-----7-----7-----------7-----7-----------7--
E|-----------------------------------------------

Stave 2:
t:  H  H  H  H  H  H  H  H  H  H  H  H  H  H  H  
E|-----------------------------------------------
B|-----------------------------------------------
G|-----------------------------------------------
D|--------------------6-----------------6--------
A|-----4-----4-----4-----4-----4-----4-----4-----
E|--5-----5-----5-----------5-----5-----------5--

Stave 3:
t:  H  H  H  H  H  H  H  H  H  H  H  H  H  H  H  
E|-----------------------------------------------
B|-----------------------------------------------
G|--------------8-----------------8--------------
D|-----6-----6-----6-----6-----6-----6-----6-----
A|--7-----7-----------7-----7-----------7-----7--
E|-----------------------------------------------

Stave 4:
t:  H  H  H  H  H  H  H  H  H  H  H  H  H  H  H  
E|-----------------------------------------------
B|-----------------------------------------------
G|-----------------------------------------------
D|--------------6-----------------6--------------
A|-----4-----4-----4-----4-----4-----4-----4-----
E|--5-----5-----------5-----5-----------5-----5--

Stave 5:
t:  W  W  W W  W  W  W W  W  W  W W  W  W  
E|-----------------------------------------
B|-----------------------------------------
G|--------8p0--------8p0--------8p0--------
D|-----6----------6----------6-------------
A|--7----------7----------7----------7--5--
E|-----------------------------------------

Stave 6:
t:  W  W  W W  W  W  W W  W  W  W W  W  W  W  
E|--------------------------------------------
B|--------------------------------------------
G|--------------------------------------------
D|--------6p0--------6p0--------6p0-----------
A|-----4----------4----------4----------------
E|--5----------5----------5----------5--2--0--

							http://www.guitartabcreator.com
Chords

Instruments
{"strings":[[[".",".",".",".",".",".",".",".",".",".",".",".",".",".","."],[".",".",".",".",".",".",".",".",".",".",".",".",".",".","."],[".",".",".",".",".",".",8,".",".",".",".",".",8,".","."],[".",6,".",6,".",6,".",6,".",6,".",6,".",6,"."],[7,".",7,".",7,".",".",".",7,".",7,".",".",".",7],[".",".",".",".",".",".",".",".",".",".",".",".",".",".","."]],[[".",".",".",".",".",".",".",".",".",".",".",".",".",".","."],[".",".",".",".",".",".",".",".",".",".",".",".",".",".","."],[".",".",".",".",".",".",".",".",".",".",".",".",".",".","."],[".",".",".",".",".",".",6,".",".",".",".",".",6,".","."],[".",4,".",4,".",4,".",4,".",4,".",4,".",4,"."],[5,".",5,".",5,".",".",".",5,".",5,".",".",".",5]],[[".",".",".",".",".",".",".",".",".",".",".",".",".",".","."],[".",".",".",".",".",".",".",".",".",".",".",".",".",".","."],[".",".",".",".",8,".",".",".",".",".",8,".",".",".","."],[".",6,".",6,".",6,".",6,".",6,".",6,".",6,"."],[7,".",7,".",".",".",7,".",7,".",".",".",7,".",7],[".",".",".",".",".",".",".",".",".",".",".",".",".",".","."]],[[".",".",".",".",".",".",".",".",".",".",".",".",".",".","."],[".",".",".",".",".",".",".",".",".",".",".",".",".",".","."],[".",".",".",".",".",".",".",".",".",".",".",".",".",".","."],[".",".",".",".",6,".",".",".",".",".",6,".",".",".","."],[".",4,".",4,".",4,".",4,".",4,".",4,".",4,"."],[5,".",5,".",".",".",5,".",5,".",".",".",5,".",5]],[[".",".",".",".",".",".",".",".",".",".",".",".",".",".",".",".","."],[".",".",".",".",".",".",".",".",".",".",".",".",".",".",".",".","."],[".",".",8,"p",0,".",".",8,"p",0,".",".",8,"p",0,".","."],[".",6,".",".",".",".",6,".",".",".",".",6,".",".",".",".","."],[7,".",".",".",".",7,".",".",".",".",7,".",".",".",".",7,5],[".",".",".",".",".",".",".",".",".",".",".",".",".",".",".",".","."]],[[".",".",".",".",".",".",".",".",".",".",".",".",".",".",".",".",".","."],[".",".",".",".",".",".",".",".",".",".",".",".",".",".",".",".",".","."],[".",".",".",".",".",".",".",".",".",".",".",".",".",".",".",".",".","."],[".",".",6,"p",0,".",".",6,"p",0,".",".",6,"p",0,".",".","."],[".",4,".",".",".",".",4,".",".",".",".",4,".",".",".",".",".","."],[5,".",".",".",".",5,".",".",".",".",5,".",".",".",".",5,2,0]]],"numberofstrings":6,"notes":["E","B","G","D","A","E","B"],"capo":0,"stringnotes":["E4","B3","G3","D3","A2","E2"],"comments":["Stave 1:","Stave 2:","Stave 3:","Stave 4:","Stave 5:","Stave 6:"],"timing":[["H","H","H","H","H","H","H","H","H","H","H","H","H","H","H"],["H","H","H","H","H","H","H","H","H","H","H","H","H","H","H"],["H","H","H","H","H","H","H","H","H","H","H","H","H","H","H"],["H","H","H","H","H","H","H","H","H","H","H","H","H","H","H"],["W","W","W","W","W","W","W","W",null,"W","W","W","W",null,"W","W","W"],["W","W","W",null,"W","W","W","W",null,"W","W","W","W",null,"W","W","W","W"]],"timingvisible":true,"tabcounter":18,"stave":5,"totalstaves":6,"instrument":"6guitar","selectedtuning":"6_standard","version":"13"}

Member for

2 months 3 weeks
Picture
About Me
uh huh
Submitted by goojk on Thu, 2020-12-03 14:00