Megaman X5 Intro Theme (played as Zero)

Chords
01234567891011121314151617181920212223
E
B
G
D
A
E
B
0 1 2 3 4 5 6 7 8 9 10 11 12 13 14 15 16 17 18 19 20 21 22 23
(/) Slide Up  (\) Slide Down  (h) Hammer On  (p) Pull Off  (b) Bend (r) Release (v) Vibrato

Stave 1:

G|--------------------------
D|-----------0--1--0--------
A|--3--3--3-----------3--1--
E|--------------------------

Stave 2:

G|--------------------------
D|-----------------0--1--3--
A|--3--3--3--1--3-----------
E|--------------------------

Stave 3:

G|--------------------------
D|--------------------------
A|--------------------------
E|--4--4--4--4--4--4--4--4--

Stave 4:

G|--------------------------
D|--------------------------
A|--------------------------
E|--3--3--3--3--3--3--3--3--

Stave 5:

G|--------------------------
D|-----------0--1--0--1--2--
A|--------3-----------------
E|--3--3--------------------

Stave 6:

G|--------------------------
D|--3--3--3--3--3--3--3--3--
A|--------------------------
E|--------------------------

Stave 7:

G|--------------------------
D|--1--1--1--1--1--1--1--1--
A|--------------------------
E|--------------------------

Stave 8:

G|--------------------
D|--1--1-----1--1--1--
A|--------------------
E|--------------------

Stave 9:

G|-----------------------------
D|--1--1--1-----1--1-----------
A|--------------------1-----1--
E|-----------------------------

Stave 10:

G|--------------------------1--
D|--1--1--1-----1--1--4--3-----
A|-----------------------------
E|-----------------------------

Stave 11:

G|-----------------------------
D|--1--1--1-----1--1--4-----4--
A|-----------------------------
E|-----------------------------

Stave 12:

G|--------------------------
D|--------------------------
A|--2--2--2--2--2--2--2--2--
E|--------------------------

Stave 13:

G|--------------------------
D|--------------------------
A|--2--2--2--2--2--2--0--0--
E|--------------------------

Stave 14:

G|--------------------------
D|--------------------------
A|--------------------------
E|--3--3--3--3--3--3--3--3--

Stave 15:

G|--------------------------
D|--------------------------
A|--0--0--0--0--0--0--0--0--
E|--------------------------

Stave 16:

G|--------------------------
D|-----------0--2-----------
A|--0--2--4-----------------
E|--------------------------

							http://www.guitartabcreator.com
Tab Notes
Some parts are missing. Part of a bigger project. Not complete
Instruments
{"strings":[[[".",".",".",".",".",".",".","."],[".",".",".",0,1,0,".","."],[3,3,3,".",".",".",3,1],[".",".",".",".",".",".",".","."]],[[".",".",".",".",".",".",".","."],[".",".",".",".",".",0,1,3],[3,3,3,1,3,".",".","."],[".",".",".",".",".",".",".","."]],[[".",".",".",".",".",".",".","."],[".",".",".",".",".",".",".","."],[".",".",".",".",".",".",".","."],[4,4,4,4,4,4,4,4]],[[".",".",".",".",".",".",".","."],[".",".",".",".",".",".",".","."],[".",".",".",".",".",".",".","."],[3,3,3,3,3,3,3,3]],[[".",".",".",".",".",".",".","."],[".",".",".",0,1,0,1,2],[".",".",3,".",".",".",".","."],[3,3,".",".",".",".",".","."]],[[".",".",".",".",".",".",".","."],[3,3,3,3,3,3,3,3],[".",".",".",".",".",".",".","."],[".",".",".",".",".",".",".","."]],[[".",".",".",".",".",".",".","."],[1,1,1,1,1,1,1,1],[".",".",".",".",".",".",".","."],[".",".",".",".",".",".",".","."]],[[".",".","_",".",".","."],[1,1,"_",1,1,1],[".",".","_",".",".","."],[".",".","_",".",".","."]],[[".",".",".","_",".",".",".","_","."],[1,1,1,"_",1,1,".","_","."],[".",".",".","_",".",".",1,"_",1],[".",".",".","_",".",".",".","_","."]],[[".",".",".","_",".",".",".",".",1],[1,1,1,"_",1,1,4,3,"."],[".",".",".","_",".",".",".",".","."],[".",".",".","_",".",".",".",".","."]],[[".",".",".","_",".",".",".","_","."],[1,1,1,"_",1,1,4,"_",4],[".",".",".","_",".",".",".","_","."],[".",".",".","_",".",".",".","_","."]],[[".",".",".",".",".",".",".","."],[".",".",".",".",".",".",".","."],[2,2,2,2,2,2,2,2],[".",".",".",".",".",".",".","."]],[[".",".",".",".",".",".",".","."],[".",".",".",".",".",".",".","."],[2,2,2,2,2,2,0,0],[".",".",".",".",".",".",".","."]],[[".",".",".",".",".",".",".","."],[".",".",".",".",".",".",".","."],[".",".",".",".",".",".",".","."],[3,3,3,3,3,3,3,3]],[[".",".",".",".",".",".",".","."],[".",".",".",".",".",".",".","."],[0,0,0,0,0,0,0,0],[".",".",".",".",".",".",".","."]],[[".",".",".",".",".","_","_","_"],[".",".",".",0,2,"_","_","_"],[0,2,4,".",".","_","_","_"],[".",".",".",".",".","_","_","_"]]],"numberofstrings":4,"notes":["G","D","A","E"],"capo":0,"stringnotes":["G2","D2","A1","E1"],"comments":["Stave 1:","Stave 2:","Stave 3:","Stave 4:","Stave 5:","Stave 6:","Stave 7:","Stave 8:","Stave 9:","Stave 10:","Stave 11:","Stave 12:","Stave 13:","Stave 14:","Stave 15:","Stave 16:"],"timing":[[null,null,null,null,null,null,null,null],[null,null,null,null,null,null,null,null],[null,null,null,null,null,null,null,null],[null,null,null,null,null,null,null,null],[null,null,null,null,null,null,null,null,null],[null,null,null,null,null,null,null,null,null],[null,null,null,null,null,null,null,null],[null,null,null,null,null,null,null,null,null,null],[null,null,null,null,null,null,null,null,null],[null,null,null,null,null,null,null,null,null],[null,null,null,null,null,null,null,null,null],[null,null,null,null,null,null,null,null],[null,null,null,null,null,null,null,null],[null,null,null,null,null,null,null,null],[null,null,null,null,null,null,null,null],[null,null,null,null,null]],"timingvisible":false,"tabcounter":8,"stave":15,"totalstaves":16,"instrument":"4bass","selectedtuning":"4bass","version":"13"}
Submitted by GoodOldDaysOfGaming on Sat, 2020-05-23 00:55