Sound will begin in 5 seconds

Movin' Targets

Chords
01234567891011121314151617181920212223
E
B
G
D
A
E
B
0 1 2 3 4 5 6 7 8 9 10 11 12 13 14 15 16 17 18 19 20 21 22 23
Song Science #1: How Pros Use 6 Chords to Write Hit Songs
(/) Slide Up  (\) Slide Down  (h) Hammer On  (p) Pull Off  (b) Bend (r) Release (v) Vibrato

Stave 1:

E|--5----5--5-------5------9-----9---12----12--12--
B|--7----7--5--5h7---------10----10--14----14--14--
G|--7----7--6--------------11----11--14----14--14--
D|--7----7--7--------------11----11--14----14--14--
A|--5----5--7--------------9-----9---12----12--12--
E|-------------------------------------------------

Stave 2:

E|------------------------------------------------
B|------------------------------------------------
G|--18------------18------------18----------------
D|------16--------------------------16--------19--
A|----------19--------------------------19--------
E|------------------------------------------------

Stave 3:

E|--------------------------------------
B|--------------------------------------
G|--------------0/11--0/14------14--18--
D|--------0/11--------------------------
A|--0/12--------------------------------
E|--------------------------------------

http://www.guitartabcreator.com
Guitar Tab Creator is intended to store guitar tab created through the tool. It currently does not support in-line text editing. Any text you place in here will be lost. If you need to comment on your tab, please use the "Tab Notes" section located below.