Sound will begin in 5 seconds

I Dont wanna go back

01234567891011121314151617181920212223
E
B
G
D
A
E
B
0 1 2 3 4 5 6 7 8 9 10 11 12 13 14 15 16 17 18 19 20 21 22 23
Song Science #1: How Pros Use 6 Chords to Write Hit Songs
(/) Slide Up  (\) Slide Down  (h) Hammer On  (p) Pull Off  (b) Bend (r) Release (v) Vibrato

Stave 1:

G|--------------------------------------------------------------------------------------------
D|--------------------------------------------------------------------------------------------
A|--1--1--------------------1--1--------------------1--1--------------------------------------
E|--------1--1--2--2--1--1--------1--1--2--2--1--1--------1--1--2--2--1--1--------4--4--4--4--

Stave 2:

G|--------------------------------------------------------3-----3--3-----5--5--6-----5-----3--3--1--3--
D|-----------------------------------------------------------------------------------------------------
A|--------------------------------------------------1--------------------------------------------------
E|--2-----2-----2--2--2-----2--2--2-----2--2--2--------------------------------------------------------

Stave 3:

G|--------------------------------------------------------3-----3--3-----5-----1--
D|--------------------------------------------------------------------------------
A|--------------------------------------------------1-----------------------------
E|--2-----2-----2--2--2-----2--2--2-----2--2--2-----------------------------------

Stave 4:

G|----------------------------------------|--------------------------8--6--5-----------
D|----------------------------------------|-----5--8-----5-----5--8-----------8--5--8--
A|--------------8--11--8-----8--11--8-----|--6--------------6--------------------------
E|--9--9--9---------------9------------9--|--------------------------------------------

Stave 5:

G|--
D|--
A|--
E|--

http://www.guitartabcreator.com
Guitar Tab Creator is intended to store guitar tab created through the tool. It currently does not support in-line text editing. Any text you place in here will be lost. If you need to comment on your tab, please use the "Tab Notes" section located below.