Sound will begin in 5 seconds

bass ashizzle

Chords
01234567891011121314151617181920212223
E
B
G
D
A
E
B
0 1 2 3 4 5 6 7 8 9 10 11 12 13 14 15 16 17 18 19 20 21 22 23
Song Science #1: How Pros Use 6 Chords to Write Hit Songs
(/) Slide Up  (\) Slide Down  (h) Hammer On  (p) Pull Off  (b) Bend (r) Release (v) Vibrato

Stave 1:

G|--18--16--16--17--
D|--16--16--14--14--
A|--14--14--12--12--
E|--_--------------

Stave 2:

G|--18--18--18--16------------------
D|--14--14--14--14--18--18--16--16--
A|--_--------------14--14--14--14--
E|--_------------------------------

Stave 3:

G|--19--------21--------22-----------------------------22--------21--------19--
D|------0--0------0--0------0--0--0--0--0--0--0--0--0------0--0------0--0------
A|-----------------------------------------------------------------------------
E|-----------------------------------------------------------------------------

Stave 4:

G|-----------------19--19--17--18--
D|--0--0--0--0--0--17--17--15--16--
A|---------------------------------
E|---------------------------------

Stave 5:

G|----------------------------------------------10--
D|--0--0--0--0--0--0--0--0--0--0--0--0--0--7h9--10--
A|--------------------------------------------------
E|--------------------------------------------------

Stave 6:

G|-----------------------------10--9--
D|--0--0--0--0--0--0--0--0--0--10--9--
A|------------------------------------
E|------------------------------------

Stave 7:

G|----------------------------------------------10--
D|--0--0--0--0--0--0--0--0--0--0--0--0--0--7h9--10--
A|--------------------------------------------------
E|--------------------------------------------------

Stave 8:

G|-----------------------------10--9--12--
D|--0--0--0--0--0--0--0--0--0--10--9--12--
A|----------------------------------------
E|----------------------------------------

http://www.guitartabcreator.com
Guitar Tab Creator is intended to store guitar tab created through the tool. It currently does not support in-line text editing. Any text you place in here will be lost. If you need to comment on your tab, please use the "Tab Notes" section located below.