Sound will begin in 5 seconds

Minor Blues Scale, All Positions

01234567891011121314151617181920212223
E
B
G
D
A
E
B
0 1 2 3 4 5 6 7 8 9 10 11 12 13 14 15 16 17 18 19 20 21 22 23
Song Science #1: How Pros Use 6 Chords to Write Hit Songs
(/) Slide Up  (\) Slide Down  (h) Hammer On  (p) Pull Off  (b) Bend (r) Release (v) Vibrato

Stave 1:

G|-----------------0--2--0--------------------------
D|--------0--1--2-----------2--1--0-----------------
A|--0--3-----------------------------3--0-----------
E|-----------------------------------------3--0--3--

Stave 2:

G|--------------------2--5--2--------------------------
D|-----------1--2--5-----------5--2--1-----------------
A|-----3--5-----------------------------5--3-----------
E|--5-----------------------------------------5--3--5--

Stave 3:

G|-----------------------5--7--8--7--5-----------------------------
D|-----------------5--7-----------------7--5-----------------------
A|--------5--6--7-----------------------------7--6--5--------------
E|--5--8-----------------------------------------------8--5--3--5--

Stave 4:

G|-----------------------------7--8--9--8--7-----------------------------
D|----------------------7--10-----------------10--7----------------------
A|------------6--7--10-------------------------------10--7--6------------
E|--5--8--10---------------------------------------------------10--8--5--

Stave 5:

G|------------------9--12--9--------------------------------------
D|------10--12--13------------13--12--10--------------------------
A|--12------------------------------------12--10------------------
E|------------------------------------------------12--11--10--11--

Stave 6:

G|----------------------12--14--12--------------------------------------
D|----------12--13--14--------------14--13--12--------------------------
A|--12--15--------------------------------------15--12--------------12--
E|------------------------------------------------------15--12--15------

Stave 7:

G|--------------------------14--17--14----------------------------------
D|--------------13--14--17--------------17--14--13----------------------
A|------15--17--------------------------------------17--15--------------
E|--17------------------------------------------------------17--15--17--

http://www.guitartabcreator.com
Guitar Tab Creator is intended to store guitar tab created through the tool. It currently does not support in-line text editing. Any text you place in here will be lost. If you need to comment on your tab, please use the "Tab Notes" section located below.