Fria

Chords

01234567891011121314151617181920212223
E
B
G
D
A
E
B
0 1 2 3 4 5 6 7 8 9 10 11 12 13 14 15 16 17 18 19 20 21 22 23
(/) Slide Up  (\) Slide Down  (h) Hammer On  (p) Pull Off  (b) Bend (r) Release (v) Vibrato

Stave 1:

E|--------0--1--------0--1--------0--1--------0--1--------0--1--------0--1--
B|-----3-----------3-----------3-----------3-----------3-----------3--------
G|--2-----------2-----------2-----------3-----------3-----------3-----------
D|--------------------------------------------------------------------------
A|--------------------------------------------------------------------------
E|--------------------------------------------------------------------------

Stave 2:

E|-----------0-----------------------------------5--4--5--6--5--5--
B|-----1--3-----3--1-----1-----------------------5--4--5--6--5--5--
G|--0-----------------3-----3--2--0--3--0--1--2--------------------
D|-----------------------------------------------------------------
A|-----------------------------------------------------------------
E|-----------------------------------------------------------------

							http://www.guitartabcreator.com
Instruments
{"strings":[[[".",".",0,1,".",".",0,1,".",".",0,1,".",".",0,1,".",".",0,1,".",".",0,1],[".",3,".",".",".",3,".",".",".",3,".",".",".",3,".",".",".",3,".",".",".",3,".","."],[2,".",".",".",2,".",".",".",2,".",".",".",3,".",".",".",3,".",".",".",3,".",".","."],[".",".",".",".",".",".",".",".",".",".",".",".",".",".",".",".",".",".",".",".",".",".",".","."],[".",".",".",".",".",".",".",".",".",".",".",".",".",".",".",".",".",".",".",".",".",".",".","."],[".",".",".",".",".",".",".",".",".",".",".",".",".",".",".",".",".",".",".",".",".",".",".","."]],[[".",".",".",0,".",".",".",".",".",".",".",".",".",".",".",5,4,5,6,5,5],[".",1,3,".",3,1,".",1,".",".",".",".",".",".",".",5,4,5,6,5,5],[0,".",".",".",".",".",3,".",3,2,0,3,0,1,2,".",".",".",".",".","."],[".",".",".",".",".",".",".",".",".",".",".",".",".",".",".",".",".",".",".",".","."],[".",".",".",".",".",".",".",".",".",".",".",".",".",".",".",".",".",".",".",".","."],[".",".",".",".",".",".",".",".",".",".",".",".",".",".",".",".",".",".",".",".","."]]],"numberofstrings":6,"notes":["E","B","G","D","A","E","B"],"capo":0,"stringnotes":["E4","B3","G3","D3","A2","E2"],"comments":["Stave 1:","Stave 2:"],"timing":[["W","W","W","W","W","W","W","W","W","W","W","W","W","W","W","W","W","W","W","W","W","W","W","W"],["W","W","W","W","W","W","W","W","W","W","W","W","W","W","W","W","W","W","W","W","W","W"]],"timingvisible":false,"tabcounter":21,"stave":1,"totalstaves":2,"instrument":"6guitar","selectedtuning":"6_standard","version":"13"}

Member for

1 week 5 days
Submitted by gonzalo on Mon, 2020-09-14 20:59