Sound will begin in 5 seconds

Soul Eater - Opening II

Chords
01234567891011121314151617181920212223
E
B
G
D
A
E
B
0 1 2 3 4 5 6 7 8 9 10 11 12 13 14 15 16 17 18 19 20 21 22 23
Song Science #1: How Pros Use 6 Chords to Write Hit Songs
(/) Slide Up  (\) Slide Down  (h) Hammer On  (p) Pull Off  (b) Bend (r) Release (v) Vibrato

Stave 1:

E|-----------|---------------------------|-----
B|-----------|---------------------------|-----
G|-----------|--3--10--3--8--7--5--7--5--|--3--
D|-----------|---------------------------|-----
A|-----------|--1--8---1--6--5--3--5--3--|--1--
D|--5--8--7--|---------------------------|-----

Stave 2:

E|--------------------------------------------------------|--
B|--------8-----------------------------------------------|--
G|--------7-----------------------8-----------5-----------|--
D|--------------------4--------8-----------5-----5-----3--|--
A|-----5-----------5--------6-----------3--------------3--|--
D|--5-----------4--------------------------------------3--|--

Stave 3:

E|---------------------------------------------------------------------------------------------
B|---------------------------------------------------------------------------------11------11--
G|-----8--7-----8--7-----10-----10--8--7--8--7-----------8--7-----8--7--10-----10------10------
D|--8--------8--------8-------------------------8-----8--------8-------------------------------
A|---------------------------------------------------------------------------------------------
D|---------------------------------------------------------------------------------------------

http://www.guitartabcreator.com
Guitar Tab Creator is intended to store guitar tab created through the tool. It currently does not support in-line text editing. Any text you place in here will be lost. If you need to comment on your tab, please use the "Tab Notes" section located below.