Sound will begin in 5 seconds

DRAWN OUT BASS

01234567891011121314151617181920212223
E
B
G
D
A
E
B
0 1 2 3 4 5 6 7 8 9 10 11 12 13 14 15 16 17 18 19 20 21 22 23
(/) Slide Up  (\) Slide Down  (h) Hammer On  (p) Pull Off  (b) Bend (r) Release (v) Vibrato

Stave 1:

C |--------------------------------------------------------------------------------------------------------
G |--------------------------------------------------------------------------------------------------------
Ds|--------------------------------------------------------------------------------------------------------
As|--------------------------------------------------------------------------------------------------------
F |-----------3-----2--------------------------3--5--2-----------5--3--2--------5--7--5--------5--3--2-----
C |--5-----------3--------------5-----------------------5-----------------5--------------5--------------5--

Stave 2:

C |--------------------------------------------------------------------------------------------------------
G |--------------------------------------------------------------------------------------------------------
Ds|--------------------------------------------------------------------------------------------------------
As|--------------------------------------------------------------------------------------------------------
F |-----------3--2--------------3--2-----------------------------------------------------------------------
C |--5--17/5--------5--5--17/5--------5--5--5--5--5--5--5--5--5--5--5--5--5--5--5--5--5--5--5--5--5--5--5--

Stave 3:

C |-----------------------------------------------------------------------------------------------------
G |-----------------------------------------------------------------------------------------------------
Ds|-----------------------------------------------------------------------------------------------------
As|-----------------------------------------------------------------------------------------------------
F |-----3--2--------------------------------------------------------------3--2--------------3--2--------
C |--5--------5--5--5--5--5--5--5--5--5--5--5--5--5--5--5--5--5--5--5--5--------5--5--17/5--------5--5--

Stave 4:

C |--------------------------------------------------------------------------------------------------------
G |--------------------------------------------------------------------------------------------------------
Ds|--------------------------------------------------------------------------------------------------------
As|--------------------------------------------------------------------------------------------------------
F |--------3--2--2--2--2--2--3--3--3--3--0--0--0--0--3--2--2--2--2--2--2--2--2--5--5--5--5--3--3--2--------
C |--17/5--------------------------------------------------------------------------------------------3--3--

Stave 5:

C |--------------------
G |--------------------
Ds|--------------------
As|--------------------
F |--------------------
C |--3--3--3--3--3--3--

http://www.guitartabcreator.com
Guitar Tab Creator is intended to store guitar tab created through the tool. It currently does not support in-line text editing. Any text you place in here will be lost. If you need to comment on your tab, please use the "Tab Notes" section located below.