Sound will begin in 5 seconds

VV Brown - Shark in the Water

Chords
01234567891011121314151617181920212223
E
B
G
D
A
E
B
0 1 2 3 4 5 6 7 8 9 10 11 12 13 14 15 16 17 18 19 20 21 22 23
(/) Slide Up  (\) Slide Down  (h) Hammer On  (p) Pull Off  (b) Bend (r) Release (v) Vibrato

Stave 1:

E|-----------------------------------4-----4--------4-----4--4--------
B|--9--x--9--x--x--9--x--9--9--x--x--4--x--4--x--x--4--x--4--4--x--x--
G|--9--x--9--x--x--9--x--9--9--x--x--5--x--5--x--x--5--x--5--5--x--x--
D|--9--x--9--x--x--9--x--9--9--x--x--6--x--6--x--x--6--x--6--6--x--x--
A|--7--x--7--x--x--7--x--7--7--x--x--6--x--6--x--x--6--x--6--6--x--x--
E|-----------------------------------4-----4--------4-----4--4--------

Stave 2:

E|--5-----5--------5-----5--5--------10-----10--------10-----10--10--------
B|--5--x--5--x--x--5--x--5--5--x--x--11--x--11--x--x--11--x--11--11--x--x--
G|--6--x--6--x--x--6--x--6--6--x--x--12--x--12--x--x--12--x--12--12--x--x--
D|--7--x--7--x--x--7--x--7--7--x--x--12--x--12--x--x--12--x--12--12--x--x--
A|--7--x--7--x--x--7--x--7--7--x--x--10--x--10--x--x--10--x--10--10--x--x--
E|--5-----5--------5-----5--5-----x----------------------------------------

Stave 3:

E|-----------------------------
B|-----------------------------
G|-----------------------------
D|-----------------------------
A|-----------------------------
E|--12--14\11--11--12\9--9--5--

Stave 4:

E|--4-----5--------------
B|--5-----5-----9--------
G|--6-----6-----9-----8--
D|--6-----7-----9-----9--
A|--4-----7-----7-----9--
E|--------5-----------7--

Stave 5:

E|--------------------------------------------------------
B|-----------7--9--10-----10--9--------10--9-----------4--
G|-----6-------------------------9------------------4-----
D|--------------------------------------------9-----------
A|--------------------------------------------------------
E|--------------------------------------------------------

Stave 6:

E|-----
B|--9--
G|--9--
D|--9--
A|--7--
E|-----

http://www.guitartabcreator.com
Guitar Tab Creator is intended to store guitar tab created through the tool. It currently does not support in-line text editing. Any text you place in here will be lost. If you need to comment on your tab, please use the "Tab Notes" section located below.