Summertime tab

01234567891011121314151617181920212223
E
B
G
D
A
E
B
0 1 2 3 4 5 6 7 8 9 10 11 12 13 14 15 16 17 18 19 20 21 22 23
(/) Slide Up  (\) Slide Down  (h) Hammer On  (p) Pull Off  (b) Bend (r) Release (v) Vibrato

Stave 1:

E|--0-----0--|-----------0--|--------|--0-----------|--
B|-----1-----|--3--1--3-----|--1-----|-----1--3--3--|--
G|-----------|--------------|-----2--|--------------|--
D|-----------|--------------|--------|--------------|--
A|-----------|--------------|--------|--------------|--
E|-----------|--------------|--------|--------------|--

Stave 2:

E|-----------------|-----|--0-----0--|-----------0-----------|--
B|--1-----1--3--1--|--0--|-----1-----|--3--1--3-----3--1-----|--
G|-----2-----------|-----|-----------|--------------------2--|--
D|-----------------|-----|-----------|-----------------------|--
A|-----------------|-----|-----------|-----------------------|--
E|-----------------|-----|-----------|-----------------------|--

Stave 3:

E|--------------------|--0--------------
B|-----------------1--|-----3--1--1-----
G|-----0-----0--2-----|--------------2--
D|--2-----2-----------|-----------------
A|--------------------|-----------------
E|--------------------|-----------------

							http://www.guitartabcreator.com
Chords

Instruments
{"strings":[[[0,".",0,"|",".",".",".",0,"|",".",".","|",0,".",".",".","|"],[".",1,".","|",3,1,3,".","|",1,".","|",".",1,3,3,"|"],[".",".",".","|",".",".",".",".","|",".",2,"|",".",".",".",".","|"],[".",".",".","|",".",".",".",".","|",".",".","|",".",".",".",".","|"],[".",".",".","|",".",".",".",".","|",".",".","|",".",".",".",".","|"],[".",".",".","|",".",".",".",".","|",".",".","|",".",".",".",".","|"]],[[".",".",".",".",".","|",".","|",0,".",0,"|",".",".",".",0,".",".",".","|"],[1,".",1,3,1,"|",0,"|",".",1,".","|",3,1,3,".",3,1,".","|"],[".",2,".",".",".","|",".","|",".",".",".","|",".",".",".",".",".",".",2,"|"],[".",".",".",".",".","|",".","|",".",".",".","|",".",".",".",".",".",".",".","|"],[".",".",".",".",".","|",".","|",".",".",".","|",".",".",".",".",".",".",".","|"],[".",".",".",".",".","|",".","|",".",".",".","|",".",".",".",".",".",".",".","|"]],[[".",".",".",".",".",".","|",0,".",".",".","."],[".",".",".",".",".",1,"|",".",3,1,1,"."],[".",0,".",0,2,".","|",".",".",".",".",2],[2,".",2,".",".",".","|",".",".",".",".","."],[".",".",".",".",".",".","|",".",".",".",".","."],[".",".",".",".",".",".","|",".",".",".",".","."]]],"numberofstrings":6,"notes":["E","B","G","D","A","E","B"],"capo":0,"stringnotes":["E4","B3","G3","D3","A2","E2"],"comments":["Stave 1:","Stave 2:","Stave 3:"],"timing":[["W","W","W",null,"W","W","W","W",null,"W","W",null,"W","W","W","W"],["W","W","W","W","W",null,"W",null,"W","W","W",null,"W","W","W","W","W","W","W"],["W","W","W","W","W","W",null,"W","W","W","W","W","W"]],"timingvisible":false,"tabcounter":12,"stave":2,"totalstaves":3,"instrument":"6guitar","selectedtuning":"6_standard","version":"13"}

Member for

10 months 3 weeks
Submitted by glenellan on Mon, 2021-02-22 03:47