Single String Boogie

Chords

01234567891011121314151617181920212223
E
B
G
D
A
E
B
0 1 2 3 4 5 6 7 8 9 10 11 12 13 14 15 16 17 18 19 20 21 22 23
(/) Slide Up  (\) Slide Down  (h) Hammer On  (p) Pull Off  (b) Bend (r) Release (v) Vibrato

Stave 1:

E|--------------|--------------|--------------|--------------|--
B|--------------|--------------|--------------|--------------|--
G|--------------|--------------|--------------|--------------|--
D|--------------|--------------|--------------|--------------|--
A|--0--0--3--5--|--0--0--5--4--|--0--0--3--5--|--0--0--5--4--|--
E|--------------|--------------|--------------|--------------|--

Stave 2:

E|--------------|--------------|--------------|--------------|--
B|--------------|--------------|--------------|--------------|--
G|--------------|--------------|--------------|--------------|--
D|--0--0--3--5--|--0--0--5--3--|--------------|--0--0--5--4--|--
A|--------------|--------------|--------------|--------------|--
E|--------------|--------------|--0--0--3--5--|--------------|--

Stave 3:

E|--------------------------
B|--------------------------
G|--------------------------
D|--------------------------
A|--0--0--3--5--0--0--5--4--
E|--------------------------

							http://www.guitartabcreator.com
Instruments
{"strings":[[[".",".",".",".","|",".",".",".",".","|",".",".",".",".","|",".",".",".",".","|"],[".",".",".",".","|",".",".",".",".","|",".",".",".",".","|",".",".",".",".","|"],[".",".",".",".","|",".",".",".",".","|",".",".",".",".","|",".",".",".",".","|"],[".",".",".",".","|",".",".",".",".","|",".",".",".",".","|",".",".",".",".","|"],[0,0,3,5,"|",0,0,5,4,"|",0,0,3,5,"|",0,0,5,4,"|"],[".",".",".",".","|",".",".",".",".","|",".",".",".",".","|",".",".",".",".","|"]],[[".",".",".",".","|",".",".",".",".","|",".",".",".",".","|",".",".",".",".","|"],[".",".",".",".","|",".",".",".",".","|",".",".",".",".","|",".",".",".",".","|"],[".",".",".",".","|",".",".",".",".","|",".",".",".",".","|",".",".",".",".","|"],[0,0,3,5,"|",0,0,5,3,"|",".",".",".",".","|",0,0,5,4,"|"],[".",".",".",".","|",".",".",".",".","|",".",".",".",".","|",".",".",".",".","|"],[".",".",".",".","|",".",".",".",".","|",0,0,3,5,"|",".",".",".",".","|"]],[[".",".",".",".",".",".",".","."],[".",".",".",".",".",".",".","."],[".",".",".",".",".",".",".","."],[".",".",".",".",".",".",".","."],[0,0,3,5,0,0,5,4],[".",".",".",".",".",".",".","."]]],"numberofstrings":6,"notes":["E","B","G","D","A","E","B"],"capo":0,"stringnotes":["E4","B3","G3","D3","A2","E2"],"comments":["Stave 1:","Stave 2:","Stave 3:"],"timing":[["W","W","W","W",null,"W","W","W","W",null,"W","W","W","W",null,"W","W","W","W"],["W","W","W","W","W","W","W","W","W",null,"W","W","W","W",null,"W","W","W","W"],["W","W","W","W","W","W","W","W"]],"timingvisible":false,"tabcounter":8,"stave":2,"totalstaves":3,"instrument":"6guitar","selectedtuning":"6_standard","version":"13"}

Member for

7 months 3 weeks
Submitted by glenellan on Wed, 2020-05-13 07:56