Sound will begin in 5 seconds

Hotel California live Eagle

01234567891011121314151617181920212223
E
B
G
D
A
E
B
0 1 2 3 4 5 6 7 8 9 10 11 12 13 14 15 16 17 18 19 20 21 22 23
Song Science #1: How Pros Use 6 Chords to Write Hit Songs
(/) Slide Up  (\) Slide Down  (h) Hammer On  (p) Pull Off  (b) Bend (r) Release (v) Vibrato

Stave 1:

E|--------------------------------------------------
B|-----------------------------7--7--8--7-----------
G|--4--4--6--4--3--4--6--7--9--------------9h11-----
D|--------------------------------------------------
A|--------------------------------------------------
E|--------------------------------------------------

Stave 2:

E|------------------------------------------------
B|-----------3--2---------------------------------
G|--2-----4-----------2--2--4--2------------------
D|-----------------4-----------------4p2----------
A|-------------------------------------------5/7--
E|------------------------------------------------

Stave 3:

E|-----------0-----------0-----------0-----------0--|--------7p0--------10p0--|--
B|--------0-----------0-----------0-----------0-----|-----8----------8--------|--
G|-----0-----------2-----------4-----------7--------|--9----------9-----------|--
D|--2-----------4-----------5-----------9-----------|-------------------------|--
A|--------------------------------------------------|-------------------------|--
E|--------------------------------------------------|-------------------------|--

Stave 4:

E|--------7-----6--7-----9--10--9--10--12\14--
B|-----8--------------------------------------
G|--9-----------------------------------------
D|--------------------------------------------
A|--------------------------------------------
E|--------------------------------------------

Stave 5:

E|-------------------------------------------
B|-----7--8--7-----7--7-----7----------------
G|--------------9--------9-----7--9----------
D|--9--------------------------------9--7h9--
A|-------------------------------------------
E|-------------------------------------------

Stave 6:

E|--------------------------------------------------|--9--10--9--10/12--12--
B|-------------------------------------8--7--8--10--|-----------------------
G|-------7--6-----6--6--------6--7--9---------------|-----------------------
D|--7h9--------9--------7--9------------------------|-----------------------
A|--------------------------------------------------|-----------------------
E|--------------------------------------------------|-----------------------

Stave 7:

E|-----------0-----------0-----------0-----------0--|--7--------10--12--10--7--9--9--10--9--7--9--7\6--
B|--------0-----------0-----------0-----------0-----|-----8--------------------------------------------
G|-----0-----------2-----------4-----------7--------|--------9-----------------------------------------
D|--2-----------4-----------5-----------9-----------|--------------------------------------------------
A|--------------------------------------------------|--------------------------------------------------
E|--------------------------------------------------|--------------------------------------------------

Stave 8:

E|--------------------------------------------
B|--8--7--7--7--8--7-----7--------------------
G|--------------------9-----7--6-----4-----3--
D|--------------------------------------------
A|--------------------------------------------
E|--------------------------------------------

http://www.guitartabcreator.com
Guitar Tab Creator is intended to store guitar tab created through the tool. It currently does not support in-line text editing. Any text you place in here will be lost. If you need to comment on your tab, please use the "Tab Notes" section located below.