Sound will begin in 5 seconds

Purple_Rain_Petrucci

01234567891011121314151617181920212223
E
B
G
D
A
E
B
0 1 2 3 4 5 6 7 8 9 10 11 12 13 14 15 16 17 18 19 20 21 22 23
Song Science #1: How Pros Use 6 Chords to Write Hit Songs
(/) Slide Up  (\) Slide Down  (h) Hammer On  (p) Pull Off  (b) Bend (r) Release (v) Vibrato

Stave 1:

E|-----------------------------------------------------------------------
B|--------5b7r5----------------9-----------------------------------------
G|-----2---------6\8--------------------4b6r4b6r4p2-----2-------------9--
D|--------------------------9------------------------4-----------6\7-----
A|-----------------------------------------------------------------------
E|-----------------------------------------------------------------------

Stave 2:

E|------------10--------------------------------------------
B|-----12b14------12b14--10---------------------------------
G|--9------------------------------12/11--12/11p9--9--------
D|----------------------------------------------------------
A|----------------------------------------------------------
E|----------------------------------------------------------

Stave 3:

E|-------------------------
B|--4\5--7\10--10----------
G|-----------------8h10p8--
D|-------------------------
A|-------------------------
E|-------------------------

http://www.guitartabcreator.com
Guitar Tab Creator is intended to store guitar tab created through the tool. It currently does not support in-line text editing. Any text you place in here will be lost. If you need to comment on your tab, please use the "Tab Notes" section located below.