Sound will begin in 5 seconds

Arpeggio Chord Progression (Am-F-C-G)

Chords
01234567891011121314151617181920212223
E
B
G
D
A
E
B
0 1 2 3 4 5 6 7 8 9 10 11 12 13 14 15 16 17 18 19 20 21 22 23
Song Science #1: How Pros Use 6 Chords to Write Hit Songs
(/) Slide Up  (\) Slide Down  (h) Hammer On  (p) Pull Off  (b) Bend (r) Release (v) Vibrato

Stave 1:

E|--0--1--0--3--
B|--1--1--1--3--
G|--2--2--0--0--
D|--2--3--2--0--
A|--0-----3--2--
E|-----------3--

Stave 2:

E|--17p12--------------12--17p12--|--12p8-------------8--12p8--|--
B|---------13------13-------------|--------10-----10-----------|--
G|-------------14-----------------|------------9---------------|--
D|--------------------------------|----------------------------|--
A|--------------------------------|----------------------------|--
E|--------------------------------|----------------------------|--

Stave 3:

E|--13p8--------------8--13p8--|--17p13--------------13--17p13--|--
B|--------10------10-----------|---------13------13-------------|--
G|------------10---------------|-------------14-----------------|--
D|-----------------------------|--------------------------------|--
A|-----------------------------|--------------------------------|--
E|-----------------------------|--------------------------------|--

Stave 4:

E|--15p12--------------12--15p12--|--20p15--------------15--20p15--|--
B|---------13------13-------------|---------17------17-------------|--
G|-------------12-----------------|-------------17-----------------|--
D|--------------------------------|--------------------------------|--
A|--------------------------------|--------------------------------|--
E|--------------------------------|--------------------------------|--

http://www.guitartabcreator.com
Guitar Tab Creator is intended to store guitar tab created through the tool. It currently does not support in-line text editing. Any text you place in here will be lost. If you need to comment on your tab, please use the "Tab Notes" section located below.