Sound will begin in 5 seconds

7 Modes in the Key of E (4 Sharps = F#, C#, G#, D#)

01234567891011121314151617181920212223
E
B
G
D
A
E
B
0 1 2 3 4 5 6 7 8 9 10 11 12 13 14 15 16 17 18 19 20 21 22 23
Song Science #1: How Pros Use 6 Chords to Write Hit Songs
(/) Slide Up  (\) Slide Down  (h) Hammer On  (p) Pull Off  (b) Bend (r) Release (v) Vibrato

Stave 1:

E|--------------------------------------------------------------14--16--17--
B|--------------------------------------------------14--16--17--------------
G|--------------------------------------13--14--16--------------------------
D|--------------------------13--14--16--------------------------------------
A|--------------12--14--16--------------------------------------------------
E|--12--14--16--------------------------------------------------------------

Stave 2:

E|-----------------------------------------------4--5--7--
B|--------------------------------------4--5--7-----------
G|-----------------------------2--4--6--------------------
D|--------------------2--4--6-----------------------------
A|-----------2--4--6--------------------------------------
E|--2--4--5-----------------------------------------------

Stave 3:

E|-----------------------------------------------5--7--9--
B|--------------------------------------5--7--9-----------
G|-----------------------------4--6--8--------------------
D|--------------------4--6--7-----------------------------
A|-----------4--6--7--------------------------------------
E|--4--5--7-----------------------------------------------

Stave 4:

E|------------------------------------------------7--9--11--
B|--------------------------------------7--9--10------------
G|-----------------------------6--8--9----------------------
D|--------------------6--7--9-------------------------------
A|-----------6--7--9----------------------------------------
E|--5--7--9-------------------------------------------------

Stave 5:

E|-----------------------------------------------------9--11--12--
B|------------------------------------------9--10--12-------------
G|--------------------------------8--9--11------------------------
D|----------------------7--9--11----------------------------------
A|------------7--9--11--------------------------------------------
E|--7--9--11------------------------------------------------------

Stave 6:

E|----------------------------------------------------------11--12--14--
B|----------------------------------------------10--12--14--------------
G|-----------------------------------9--11--13--------------------------
D|------------------------9--11--13-------------------------------------
A|-------------9--11--12------------------------------------------------
E|--9--11--12-----------------------------------------------------------

Stave 7:

E|--------------------------------------------------------------12--14--16--
B|--------------------------------------------------12--14--16--------------
G|--------------------------------------11--13--14--------------------------
D|--------------------------11--13--14--------------------------------------
A|--------------11--12--14--------------------------------------------------
E|--11--12--14--------------------------------------------------------------

http://www.guitartabcreator.com
Guitar Tab Creator is intended to store guitar tab created through the tool. It currently does not support in-line text editing. Any text you place in here will be lost. If you need to comment on your tab, please use the "Tab Notes" section located below.