Sound will begin in 5 seconds

5 String Arpegios

01234567891011121314151617181920212223
E
B
G
D
A
E
B
0 1 2 3 4 5 6 7 8 9 10 11 12 13 14 15 16 17 18 19 20 21 22 23
Song Science #1: How Pros Use 6 Chords to Write Hit Songs
(/) Slide Up  (\) Slide Down  (h) Hammer On  (p) Pull Off  (b) Bend (r) Release (v) Vibrato

Stave 1:

E|---------------------12--17p12------------------
B|-----------------13-------------13--------------
G|-------------14---------------------14----------
D|---------14-----------------------------14------
A|--12h15-------------------------------------15--
E|------------------------------------------------

Stave 2:

E|---------------------10--15p10------------------
B|-----------------12-------------12--------------
G|-------------12---------------------12----------
D|---------12-----------------------------12------
A|--10h14-------------------------------------14--
E|------------------------------------------------

Stave 3:

E|------------------------10--13p10---------------------
B|--------------------12-------------12-----------------
G|-------------10h13---------------------13p10----------
D|---------12-----------------------------------12------
A|--11h14-------------------------------------------14--
E|------------------------------------------------------

Stave 4:

E|---------------------12--17p12--------------|--------------------8--13p8------------------|-------------
B|-----------------13-------------13----------|----------------10-----------10--------------|-------------
G|-------------14---------------------14------|------------10-------------------10----------|-------------
D|---------14-----------------------------14--|--------10---------------------------10------|---------17--
A|--12h15-------------------------------------|--8h12-----------------------------------12--|--15h19------
E|--------------------------------------------|---------------------------------------------|-------------

Stave 5:

E|----------15--20p15------------------|---------------------10--15p10------------------|-----------------
B|------17-------------17--------------|-----------------12-------------12--------------|-----------------
G|--17---------------------17----------|-------------12---------------------12----------|-------------12--
D|-----------------------------17------|---------12-----------------------------12------|---------12------
A|---------------------------------19--|--10h14-------------------------------------14--|--10h14----------
E|-------------------------------------|------------------------------------------------|-----------------

Stave 6:

E|------10--15p10------------------
B|--12-------------12--------------
G|---------------------12----------
D|-------------------------12------
A|-----------------------------14--
E|---------------------------------

http://www.guitartabcreator.com
Guitar Tab Creator is intended to store guitar tab created through the tool. It currently does not support in-line text editing. Any text you place in here will be lost. If you need to comment on your tab, please use the "Tab Notes" section located below.