Sound will begin in 5 seconds

3-String Arpeggios/Inversions

01234567891011121314151617181920212223
E
B
G
D
A
E
B
0 1 2 3 4 5 6 7 8 9 10 11 12 13 14 15 16 17 18 19 20 21 22 23
Song Science #1: How Pros Use 6 Chords to Write Hit Songs
(/) Slide Up  (\) Slide Down  (h) Hammer On  (p) Pull Off  (b) Bend (r) Release (v) Vibrato

Stave 1:

E|----------17--20p17------|--
B|------17-------------17--|--
G|--17---------------------|--
D|-------------------------|--
A|-------------------------|--
E|-------------------------|--

Stave 2:

E|---------8--12p8------
B|-----10-----------10--
G|--9-------------------
D|----------------------
A|----------------------
E|----------------------

Stave 3:

E|--------0--5p0-----|--------5--8p5-----|---------8--12p8------|--
B|-----1----------1--|-----5----------5--|-----10-----------10--|--
G|--2----------------|--5----------------|--9-------------------|--
D|-------------------|-------------------|----------------------|--
A|-------------------|-------------------|----------------------|--
E|-------------------|-------------------|----------------------|--

Stave 4:

E|----------12--17p12------|----------17--20p17------|--
B|------13-------------13--|------17-------------17--|--
G|--14---------------------|--17---------------------|--
D|-------------------------|-------------------------|--
A|-------------------------|-------------------------|--
E|-------------------------|-------------------------|--

Stave 5:

E|----------10--15p10------|----------15--19p15------|----------19--22p19------
B|------12-------------12--|------15-------------15--|------20-------------20--
G|--12---------------------|--16---------------------|--19---------------------
D|-------------------------|-------------------------|-------------------------
A|-------------------------|-------------------------|-------------------------
E|-------------------------|-------------------------|-------------------------

http://www.guitartabcreator.com
Guitar Tab Creator is intended to store guitar tab created through the tool. It currently does not support in-line text editing. Any text you place in here will be lost. If you need to comment on your tab, please use the "Tab Notes" section located below.