Sound will begin in 5 seconds

Too Much Heaven (Alt. Tuning Open D)

Chords
01234567891011121314151617181920212223
E
B
G
D
A
E
B
0 1 2 3 4 5 6 7 8 9 10 11 12 13 14 15 16 17 18 19 20 21 22 23
Song Science #1: How Pros Use 6 Chords to Write Hit Songs
(/) Slide Up  (\) Slide Down  (h) Hammer On  (p) Pull Off  (b) Bend (r) Release (v) Vibrato

Stave 1:

D |--2--7--8--2--5--2--7--8--2--5--
A |--2--7--8--2--5--2--7--8--2--5--
Gb|--2--6--8--2--4--2--6--8--2--4--
D |--2--7--8--2--5--2--7--8--2--5--
A |--------------------------------
D |--------------------------------

Stave 2:

D |--5--5--5--2--2--8--8--10--7--7--7--10--
A |--5--5--5--3--3--8--8--10--7--7--7--10--
Gb|--4--4--4--3--3--8--8--10--6--6--6--10--
D |--5--5--5--3--3--8--8--10--7--7--7--10--
A |----------------------------------------
D |----------------------------------------

http://www.guitartabcreator.com
Guitar Tab Creator is intended to store guitar tab created through the tool. It currently does not support in-line text editing. Any text you place in here will be lost. If you need to comment on your tab, please use the "Tab Notes" section located below.