Sound will begin in 5 seconds

Pleasant Valley Sunday (Alt. Tuning Open D)

Chords
01234567891011121314151617181920212223
E
B
G
D
A
E
B
0 1 2 3 4 5 6 7 8 9 10 11 12 13 14 15 16 17 18 19 20 21 22 23
Song Science #1: How Pros Use 6 Chords to Write Hit Songs
(/) Slide Up  (\) Slide Down  (h) Hammer On  (p) Pull Off  (b) Bend (r) Release (v) Vibrato

Stave 1:

D |--5--5--5--5--5--5--5--5--5--5--5--5--10--3--10--3--10--3--10--0--
A |--5--5--5--5--3--3--5--5--5--5--3--3--10--3--10--3--10--3--10--0--
Gb|--5--5--5--5--3--3--5--5--5--5--3--3--10--3--10--3--10--3--10--0--
D |--5--5--5--5--5--5--5--5--5--5--5--5--10--5--10--5--10--5--10--0--
A |--5--5--5--5--------5--5--5--5--------10-----10-----10-----10--0--
D |---------------------------------------------------------------0--

Stave 2:

D |-----5--0--5--------4--0--5-----
A |--7--5--0--5--7--2-----0--5--7--
Gb|--5--5--0--5--5--------0--5--5--
D |--6--5--0--5--6-----4--0--5--6--
A |--7--5--0--5--7--2--4--0--5--7--
D |--------0-----------4--0--------

Stave 3:

D |-----------------
A |--7--7--7--7--7--
Gb|--5--5--5--5--5--
D |--6--6--6--6--6--
A |--7--7--7--7--7--
D |-----------------

http://www.guitartabcreator.com
Guitar Tab Creator is intended to store guitar tab created through the tool. It currently does not support in-line text editing. Any text you place in here will be lost. If you need to comment on your tab, please use the "Tab Notes" section located below.