Sound will begin in 5 seconds

New York Mining Disaster 1941 (Alt. Tuning Open D)

Chords
01234567891011121314151617181920212223
E
B
G
D
A
E
B
0 1 2 3 4 5 6 7 8 9 10 11 12 13 14 15 16 17 18 19 20 21 22 23
Song Science #1: How Pros Use 6 Chords to Write Hit Songs
(/) Slide Up  (\) Slide Down  (h) Hammer On  (p) Pull Off  (b) Bend (r) Release (v) Vibrato

Stave 1:

D |--7--7--7--7--0--5--5--7--0--5--10--5--5--10--3--3--2--7--
A |--7--7--7--7--0--5--5--7--0--5--10--5--5--10--3--3--2--7--
Gb|--6--6--6--6--0--5--5--6--0--5--10--5--5--10--3--3--2--6--
D |--7--7--7--7--0--5--5--7--0--5--10--5--5--10--3--3--2--7--
A |--------------0--5--5-----0--5--10--5--5--10--3--3--------
D |--------------0-----------0-------------------------------

Stave 2:

D |--7--7--7--7--0--5--5--7--0--0--0--5--3--5--10--5--5--10--3--3--2--7--
A |--7--7--7--7--0--5--5--7--0--0--0--5--3--5--10--5--5--10--3--3--2--7--
Gb|--6--6--6--6--0--5--5--6--0--0--0--5--3--5--10--5--5--10--3--3--2--6--
D |--7--7--7--7--0--5--5--7--0--0--0--5--3--5--10--5--5--10--3--3--2--7--
A |--------------0--5--5-----0--0--0--5--3--5--10--5--5--10--3--3--------
D |--------------0-----------0--0--0-------------------------------------

http://www.guitartabcreator.com
Guitar Tab Creator is intended to store guitar tab created through the tool. It currently does not support in-line text editing. Any text you place in here will be lost. If you need to comment on your tab, please use the "Tab Notes" section located below.