Sound will begin in 5 seconds

If You Leave Me Now (Open E) unfinished ver 1

Chords
01234567891011121314151617181920212223
E
B
G
D
A
E
B
0 1 2 3 4 5 6 7 8 9 10 11 12 13 14 15 16 17 18 19 20 21 22 23
Song Science #1: How Pros Use 6 Chords to Write Hit Songs
(/) Slide Up  (\) Slide Down  (h) Hammer On  (p) Pull Off  (b) Bend (r) Release (v) Vibrato

Stave 1:

E |--0--0-----0-----0-----0--0--
B |--0--0-----0-----0-----0--0--
Ab|--0--0--1--0--1--0--1--0--0--
E |--0--0--2--0--2--0--2--0--0--
B |--0--0-----0-----0-----0--0--
E |--0--0-----0-----0-----0--0--

Stave 2:

E |--------------2--7--0-----0--
B |-----2--4--2--2--7--0-----0--
Ab|--2-----------2--7--0--1--0--
E |--3-----4-----------0--2--0--
B |--3--2-----2--------0-----0--
E |--------------------0-----0--

Stave 3:

E |-----------
B |-----5--2--
Ab|--1--4--1--
E |--3--5-----
B |-----------
E |-----------

Stave 4:

E |--------5-----5--7--0-----------4-----
B |--3--5--5--2--5--7--0-----2--2--4--1--
Ab|--1--4--5-----5--7--0--------1--3--1--
E |--2--5--5-----5--7--0--2-----2--4-----
B |--------5--2--5--7--0--4--2-----------
E |--------------------0--4--------------

http://www.guitartabcreator.com
Guitar Tab Creator is intended to store guitar tab created through the tool. It currently does not support in-line text editing. Any text you place in here will be lost. If you need to comment on your tab, please use the "Tab Notes" section located below.