Sound will begin in 5 seconds

If You Leave Me Now (Open E) unfinished V.2

Chords
01234567891011121314151617181920212223
E
B
G
D
A
E
B
0 1 2 3 4 5 6 7 8 9 10 11 12 13 14 15 16 17 18 19 20 21 22 23
Song Science #1: How Pros Use 6 Chords to Write Hit Songs
(/) Slide Up  (\) Slide Down  (h) Hammer On  (p) Pull Off  (b) Bend (r) Release (v) Vibrato

Stave 1:

E |--0--2--0--
B |--0-----0--
Ab|--0--1--0--
E |--0--2--0--
B |--0-----0--
E |--0-----0--

Stave 2:

E |--0-----2-----2--2--0--2--0--
B |--0-----4-----2--4--0-----0--
Ab|--0-----3-----2--3--0--1--0--
E |--0--4--4--4--2--2--0--2--0--
B |--0--2-----2--2--2--0-----0--
E |--0-----------------0-----0--

Stave 3:

E |--3--7--5--5--5-----2--2--0--2--4--
B |--3--7--7--6--5-----2--4--0--2--4--
Ab|--1--6--6--6--5-----2--3--0--2--4--
E |--------------5--4--2--2--0--2--4--
B |-----------------2--2--2--0--2-----
E |--------------------------0--------

Stave 4:

E |--2-----------
B |--4--------5--
Ab|--3-----1--4--
E |--4--4-----5--
B |-----2--2-----
E |--------2-----

http://www.guitartabcreator.com
Guitar Tab Creator is intended to store guitar tab created through the tool. It currently does not support in-line text editing. Any text you place in here will be lost. If you need to comment on your tab, please use the "Tab Notes" section located below.