Sound will begin in 5 seconds

Daydream Believer (Alt. Tuning Open D)

Chords
01234567891011121314151617181920212223
E
B
G
D
A
E
B
0 1 2 3 4 5 6 7 8 9 10 11 12 13 14 15 16 17 18 19 20 21 22 23
Song Science #1: How Pros Use 6 Chords to Write Hit Songs
(/) Slide Up  (\) Slide Down  (h) Hammer On  (p) Pull Off  (b) Bend (r) Release (v) Vibrato

Stave 1:

D |--5--7-----10--5-----5-----5--7-----10--5-----10-----5--
A |--5--7--2--10--5--2--4--3--5--7--2--10--5--2--10--3--5--
Gb|--5--6-----10--5--1--3-----5--6-----10--5--1--10-----5--
D |--5--7-----10--5--2--5-----5--7-----10--5--2--10-----5--
A |--5-----2--10--5--2--------5-----2--10--5--2--10-----5--
D |--------------------------------------------------------

Stave 2:

D |--10--0-----10--0-----5--10--5-----5-----
A |--10--0--2--10--0--2--5--10--5--2--4--3--
Gb|--10--0-----10--0--1--5--10--5--1--3-----
D |--10--0-----10--0--2--5--10--5--2--5-----
A |--10--0--2--10--0--2--5--10--5--2--------
D |-----------------------------------------

http://www.guitartabcreator.com
Guitar Tab Creator is intended to store guitar tab created through the tool. It currently does not support in-line text editing. Any text you place in here will be lost. If you need to comment on your tab, please use the "Tab Notes" section located below.