Sound will begin in 5 seconds

And I Love Her (Alt. Tuning Open D)

Chords
01234567891011121314151617181920212223
E
B
G
D
A
E
B
0 1 2 3 4 5 6 7 8 9 10 11 12 13 14 15 16 17 18 19 20 21 22 23
Song Science #1: How Pros Use 6 Chords to Write Hit Songs
(/) Slide Up  (\) Slide Down  (h) Hammer On  (p) Pull Off  (b) Bend (r) Release (v) Vibrato

Stave 1:

D |--4--6--4--6--4--6--7--1--2--
A |-----7-----7-----7--7--2--2--
Gb|-----7-----7-----7--7--3--2--
D |--4--6--4--6--4--6--7--1--2--
A |--4-----4-----4--------2--2--
D |--4-----4-----4--------1-----

Stave 2:

D |--6--9--6--6--6--6--1--
A |--7--9--7--6--7--6--2--
Gb|--7--9--7--5--7--5--3--
D |--6--9--6--6--6--6--1--
A |--------------------2--
D |--------------------1--

Stave 3:

D |-----3-----3-----3--8--2--3--
A |--5--5--5--5--5--5--8--3--3--
Gb|--4--3--4--3--4--3--8--4--3--
D |--5-----5-----5-----8--2--3--
A |--------------------8--3--3--
D |-----------------------2-----

Stave 4:

D |-----3-----4--
A |--5--5--5--5--
Gb|--4--3--4-----
D |--5-----5-----
A |--------------
D |--------------

http://www.guitartabcreator.com
Guitar Tab Creator is intended to store guitar tab created through the tool. It currently does not support in-line text editing. Any text you place in here will be lost. If you need to comment on your tab, please use the "Tab Notes" section located below.