The Mandalorian Ch. 4: The Ponds of Sorgan

Chords

01234567891011121314151617181920212223
E
B
G
D
A
E
B
0 1 2 3 4 5 6 7 8 9 10 11 12 13 14 15 16 17 18 19 20 21 22 23
(/) Slide Up  (\) Slide Down  (h) Hammer On  (p) Pull Off  (b) Bend (r) Release (v) Vibrato

Capo Fret 3

Stave 1:

E|-----------------------------------------------------------------------------------------------------------------------------------------------------------
B|-----------------------------------------------------------------------------------------------------------------------------------------------------------
G|--------4-----4-----4--------4-----2-----2--------0-----0-----0--------4-----4-----4--------4-----4-----4--------4-----2-----2--------0-----0-----0--------
D|-----4-----4-----4--------4-----4-----4--------2-----2-----2--------4-----4-----4--------4-----4-----4--------4-----4-----4--------2-----2-----2--------4--
A|-----------------------------------------------------------------------------------------------------------------------------------------------------------
E|--2--------------------0--------------------0--------------------2--------------------2--------------------0--------------------0--------------------2-----

Stave 2:

E|-----------
B|-----------
G|--------4--
D|-----4-----
A|-----------
E|--2--------

							http://www.guitartabcreator.com
Instruments
{"strings":[[[".",".",".",".",".",".",".",".",".",".",".",".",".",".",".",".",".",".",".",".",".",".",".",".",".",".",".",".",".",".",".",".",".",".",".",".",".",".",".",".",".",".",".",".",".",".",".",".",".",".","."],[".",".",".",".",".",".",".",".",".",".",".",".",".",".",".",".",".",".",".",".",".",".",".",".",".",".",".",".",".",".",".",".",".",".",".",".",".",".",".",".",".",".",".",".",".",".",".",".",".",".","."],[".",".",4,".",4,".",4,".",".",4,".",2,".",2,".",".",0,".",0,".",0,".",".",4,".",4,".",4,".",".",4,".",4,".",4,".",".",4,".",2,".",2,".",".",0,".",0,".",0,".","."],[".",4,".",4,".",4,".",".",4,".",4,".",4,".",".",2,".",2,".",2,".",".",4,".",4,".",4,".",".",4,".",4,".",4,".",".",4,".",4,".",4,".",".",2,".",2,".",2,".",".",4],[".",".",".",".",".",".",".",".",".",".",".",".",".",".",".",".",".",".",".",".",".",".",".",".",".",".",".",".",".",".",".",".",".",".",".",".",".",".",".",".",".",".",".",".",".",".",".",".",".",".","."],[2,".",".",".",".",".",".",0,".",".",".",".",".",".",0,".",".",".",".",".",".",2,".",".",".",".",".",".",2,".",".",".",".",".",".",0,".",".",".",".",".",".",0,".",".",".",".",".",".",2,"."]],[[".",".","."],[".",".","."],[".",".",4],[".",4,"."],[".",".","."],[2,".","."]]],"numberofstrings":6,"notes":["E","B","G","D","A","E","B"],"capo":"3","stringnotes":["E4","B3","G3","D3","A2","E2"],"comments":["Stave 1:","Stave 2:"],"timing":[[null,null,null,null,null,null,null,null,null,null,null,null,null,null,null,null,null,null,null,null,null,null,null,null,null,null,null,null,null,null,null,null,null,null,null,null,null,null,null,null,null,null,null,null,null,null,null,null,null,null,null],[null,null,null,null]],"timingvisible":false,"tabcounter":3,"stave":1,"totalstaves":2,"instrument":"6guitar","selectedtuning":"6_standard","version":"13"}

Member for

1 month 2 weeks
Submitted by gina.valotta on Tue, 2020-12-01 19:56