the world revolving

Chords

01234567891011121314151617181920212223
E
B
G
D
A
E
B
0 1 2 3 4 5 6 7 8 9 10 11 12 13 14 15 16 17 18 19 20 21 22 23
(/) Slide Up  (\) Slide Down  (h) Hammer On  (p) Pull Off  (b) Bend (r) Release (v) Vibrato

Stave 1:

E|--------------------------------------------------------------|--------------------|--------------------------|------------------------------------
B|-----------------------------------------------7--5-----------|--------------------|-----------7--5-----------|---------------------------------7--
G|--7--8--7--8--7--8--8--8--7--8--7--8--4--0--4--------4--6--8--|--4--0--4--8--9--6--|--4--0--4--------4--6--8--|--4--0--4--8--9--8h6-4--4--3--4-----
D|--------------------------------------------------------------|--------------------|--------------------------|------------------------------------
A|--------------------------------------------------------------|--------------------|--------------------------|------------------------------------
E|--------------------------------------------------------------|--------------------|--------------------------|------------------------------------

Stave 2:

E|----------------------------------------------------------------------------------------------------------------------------------------------------------|--
B|--------------------------------7--7--9--7--5--4----------------------------------------------------------------------------------------------------------|--
G|--3--4--4--3--1-----8--4--3--4--------------------4--6-----6--8--9--6-------------------------------------------------------------------------------------|--
D|-----------------4--8-----------------------------------6-------------------------------------------------------------------------------------------------|--
A|----------------------------------------------------------------------------------------------------------------------------------------------------------|--
E|----------------------------------------------------------------------------------------------------------------------------------------------------------|--

							http://www.guitartabcreator.com
Instruments
{"strings":[[[".",".",".",".",".",".",".",".",".",".",".",".",".",".",".",".",".",".",".",".","|",".",".",".",".",".",".","|",".",".",".",".",".",".",".",".","|",".",".",".",".",".",".",".",".","r",".",".",".",".","."],[".",".",".",".",".",".",".",".",".",".",".",".",".",".",".",7,5,".",".",".","|",".",".",".",".",".",".","|",".",".",".",7,5,".",".",".","|",".",".",".",".",".",".",".",".","r",".",".",".",".",7],[7,8,7,8,7,8,8,8,7,8,7,8,4,0,4,".",".",4,6,8,"|",4,0,4,8,9,6,"|",4,0,4,".",".",4,6,8,"|",4,0,4,8,9,8,"h",6,"r",4,4,3,4,"."],[".",".",".",".",".",".",".",".",".",".",".",".",".",".",".",".",".",".",".",".","|",".",".",".",".",".",".","|",".",".",".",".",".",".",".",".","|",".",".",".",".",".",".",".",".","r",".",".",".",".","."],[".",".",".",".",".",".",".",".",".",".",".",".",".",".",".",".",".",".",".",".","|",".",".",".",".",".",".","|",".",".",".",".",".",".",".",".","|",".",".",".",".",".",".",".",".","r",".",".",".",".","."],[".",".",".",".",".",".",".",".",".",".",".",".",".",".",".",".",".",".",".",".","|",".",".",".",".",".",".","|",".",".",".",".",".",".",".",".","|",".",".",".",".",".",".",".",".","r",".",".",".",".","."]],[[".","_",".",".",".",".",".",".",".",".",".",".",".",".",".",".",".",".",".",".",".",".",".",".","r",".",".",".",".",".",".",".",".",".",".",".",".",".",".",".",".",".",".",".",".",".",".",".",".",".",".",".","|"],[".","_",".",".",".",".",".",".",".",".",7,7,9,7,5,4,".",".",".",".",".",".",".",".","r",".",".",".",".",".",".",".",".",".",".",".",".",".",".",".",".",".",".",".",".",".",".",".",".",".",".",".","|"],[3,4,4,3,1,".",8,4,3,4,".",".",".",".",".",".",4,6,".",6,8,9,6,".","r",".",".",".",".",".",".",".",".",".",".",".",".",".",".",".",".",".",".",".",".",".",".",".",".",".",".",".","|"],[".","_",".",".",".",4,8,".",".",".",".",".",".",".",".",".",".",".",6,".",".",".",".",".","r",".",".",".",".",".",".",".",".",".",".",".",".",".",".",".",".",".",".",".",".",".",".",".",".",".",".",".","|"],[".","_",".",".",".",".",".",".",".",".",".",".",".",".",".",".",".",".",".",".",".",".",".",".","r",".",".",".",".",".",".",".",".",".",".",".",".",".",".",".",".",".",".",".",".",".",".",".",".",".",".",".","|"],[".","_",".",".",".",".",".",".",".",".",".",".",".",".",".",".",".",".",".",".",".",".",".",".","r",".",".",".",".",".",".",".",".",".",".",".",".",".",".",".",".",".",".",".",".",".",".",".",".",".",".",".","|"]]],"numberofstrings":6,"notes":["E","B","G","D","A","E","B"],"capo":0,"stringnotes":["E4","B3","G3","D3","A2","E2"],"comments":["Stave 1:","Stave 2:","Stave 3:"],"timing":[[null,null,null,null,null,"W","W","W","W","W","W","W","W",null,null,null,null,null,null,null,null,null,null,null,null,null,null,null,null,null,null,null,null,null,null,null,null,null,null,null,null,null,null,null,null,null,null,null,"W","W","W","W"],["W","W","W","W","W","W","W","W","W","W","W","W","W","W","W","W","W","W",null,"W","W","W","W","W","W",null,null,null,null,null,null,null,null,null,null,null,null,null,null,null,null,null,null,null,null,null,null,null,null,null,null,"W","W"],["W","W"]],"timingvisible":false,"tabcounter":24,"stave":1,"totalstaves":2,"instrument":"6guitar","selectedtuning":"6_standard","version":"13"}

Member for

1 week 6 days
Submitted by Gileo on Wed, 2020-11-18 20:50