Sound will begin in 5 seconds

Volt Catfish Stage (Bass)

01234567891011121314151617181920212223
E
B
G
D
A
E
B
0 1 2 3 4 5 6 7 8 9 10 11 12 13 14 15 16 17 18 19 20 21 22 23
(/) Slide Up  (\) Slide Down  (h) Hammer On  (p) Pull Off  (b) Bend (r) Release (v) Vibrato

Stave 1: (4 Times)

G|-----------------------------------
D|-----------------------------------
A|-6----6-6-6----6-6-6----6-6----6-4-
E|-----------------------------------

Stave 2: (4 Times)

G|--------6---6-----------8---8-
D|------------------------------
A|-4----4---4------6----6---6---
E|------------------------------

Stave 3: (8 Times)

G|-----------------
D|-----------------
A|-8----8-8----8-8-
E|-----------------

Stave 4: (2 Times)

G|--------------------------------------------------------------------------
D|--------------------------------------------------------------------------
A|-3----3-3----3-3----2----2-2----2-2----1----1-1----1-1----0----0-0----0-0-
E|--------------------------------------------------------------------------

Stave 5: (1 Time)

G|----------------------------------------
D|----------------------------------------
A|-3----3-3-3----3-3-3----3-3----3-1------
E|--------------------------------------3-

http://www.guitartabcreator.com
Guitar Tab Creator is intended to store guitar tab created through the tool. It currently does not support in-line text editing. Any text you place in here will be lost. If you need to comment on your tab, please use the "Tab Notes" section located below.