Italian Waltz

01234567891011121314151617181920212223
E
B
G
D
A
E
B
0 1 2 3 4 5 6 7 8 9 10 11 12 13 14 15 16 17 18 19 20 21 22 23
(/) Slide Up  (\) Slide Down  (h) Hammer On  (p) Pull Off  (b) Bend (r) Release (v) Vibrato

Stave 1:

E|-----------------|--5--------7--------8-----|--------------------|--10----------12----------10----------|--|--
B|--5--6--5--4--5--|-----5--5-----5--5-----5--|-----5--6--5--4--5--|------10--10------10--10------10--10--|--|--
G|-----------------|-----5--5-----5--5-----5--|--------------------|------10--10------10--10------10--10--|--|--
D|-----------------|--------------------------|--------------------|--0-----------0-----------0-----------|--|--
A|-----------------|--0--------0--------0-----|--0-----------------|--------------------------------------|--|--
E|-----------------|--------------------------|--------------------|--------------------------------------|--|--

Stave 2:

E|--12--13--12--10--13--|--12--------10--------7-----|-----------------|--12----------8--------5-----|--|--
B|----------------------|------9--9------9--9-----6--|--7--8--7--6--7--|------9---9------5--5-----5--|--|--
G|----------------------|------9--9------9--9-----7--|-----------------|------10--10-----5--5-----5--|--|--
D|----------------------|----------------------------|-----------------|-----------------------------|--|--
A|----------------------|----------------------------|-----------------|--0-----------0--------0-----|--|--
E|----------------------|--0---------0---------0-----|-----------------|-----------------------------|--|--

Stave 3:

E|-----5--6--5--4--5--|--0-----------0--5-----|--
B|--------------------|-----2--2--3--------5--|--
G|--------------------|-----0--0-----------6--|--
D|--------------------|-----------------------|--
A|--0-----------------|--0--------0-----0-----|--
E|--------------------|-----------------------|--

							http://www.guitartabcreator.com
Chords

Instruments
{"strings":[[[".",".",".",".",".","|",5,".",".",7,".",".",8,".","|",".",".",".",".",".",".","|",10,".",".",12,".",".",10,".",".","|","|"],[5,6,5,4,5,"|",".",5,5,".",5,5,".",5,"|",".",5,6,5,4,5,"|",".",10,10,".",10,10,".",10,10,"|","|"],[".",".",".",".",".","|",".",5,5,".",5,5,".",5,"|",".",".",".",".",".",".","|",".",10,10,".",10,10,".",10,10,"|","|"],[".",".",".",".",".","|",".",".",".",".",".",".",".",".","|",".",".",".",".",".",".","|",0,".",".",0,".",".",0,".",".","|","|"],[".",".",".",".",".","|",0,".",".",0,".",".",0,".","|",0,".",".",".",".",".","|",".",".",".",".",".",".",".",".",".","|","|"],[".",".",".",".",".","|",".",".",".",".",".",".",".",".","|",".",".",".",".",".",".","|",".",".",".",".",".",".",".",".",".","|","|"]],[[12,13,12,10,13,"|",12,".",".",10,".",".",7,".","|",".",".",".",".",".","|",12,".",".",8,".",".",5,".","|","|"],[".",".",".",".",".","|",".",9,9,".",9,9,".",6,"|",7,8,7,6,7,"|",".",9,9,".",5,5,".",5,"|","|"],[".",".",".",".",".","|",".",9,9,".",9,9,".",7,"|",".",".",".",".",".","|",".",10,10,".",5,5,".",5,"|","|"],[".",".",".",".",".","|",".",".",".",".",".",".",".",".","|",".",".",".",".",".","|",".",".",".",".",".",".",".",".","|","|"],[".",".",".",".",".","|",".",".",".",".",".",".",".",".","|",".",".",".",".",".","|",0,".",".",0,".",".",0,".","|","|"],[".",".",".",".",".","|",0,".",".",0,".",".",0,".","|",".",".",".",".",".","|",".",".",".",".",".",".",".",".","|","|"]],[[".",5,6,5,4,5,"|",0,".",".",".",0,5,".","|"],[".",".",".",".",".",".","|",".",2,2,3,".",".",5,"|"],[".",".",".",".",".",".","|",".",0,0,".",".",".",6,"|"],[".",".",".",".",".",".","|",".",".",".",".",".",".",".","|"],[0,".",".",".",".",".","|",0,".",".",0,".",0,".","|"],[".",".",".",".",".",".","|",".",".",".",".",".",".",".","|"]]],"numberofstrings":6,"notes":["E","B","G","D","A","E","B"],"capo":0,"stringnotes":["E4","B3","G3","D3","A2","E2"],"comments":["Stave 1:","Stave 2:","Stave 3:"],"timing":[["W","W","W","W","W",null,"W","W","W","W","W","W","W","W","W","W","W","W","W","W","W",null,"W","W","W","W","W","W","W","W","W"],["W","W","W","W","W",null,"W","W","W","W","W","W","W","W","W","W","W","W","W","W",null,"W","W","W","W","W","W","W","W","W"],["W","W","W","W","W","W","W","W","W","W","W","W","W","W","W"]],"timingvisible":false,"tabcounter":15,"stave":2,"totalstaves":3,"instrument":"6guitar","selectedtuning":"6_standard","version":"13"}

Member for

3 months
Submitted by Ghosty817 on Thu, 2021-01-21 22:06