Sound will begin in 5 seconds

Andantino

01234567891011121314151617181920212223
E
B
G
D
A
E
B
0 1 2 3 4 5 6 7 8 9 10 11 12 13 14 15 16 17 18 19 20 21 22 23
(/) Slide Up  (\) Slide Down  (h) Hammer On  (p) Pull Off  (b) Bend (r) Release (v) Vibrato

Primer linea

E|-------2-----0-----------------2-----0-----------------5-----4-----------
B|-----2-----2-----2-----2---0-3---0-3---0-3---0-3---0-3---0-3---0-3---0-3-
G|---2-----2-----2-----2---------------------------------------------------
D|-------------------------------------------------------------------------
A|-0-----------------0-----------------------------------------------------
E|-------------------------3-----------------3-----0-----------------0-----

Segunda linea che

E|-----0-7---0-5---0-----0--------4-----2-----------------2-----0-----------
B|---2-----2-----2-----2--------2-----2-----2-----2-----2-----2-----2-----2-
G|----------------------------2-----2-----2-----2-----------0-----0-----0---
D|----------------------------------------------------4---------------------
A|-0-----------------0-----0v-----------------0-----1-----------------0-----
E|--------------------------------------------------------------------------

tercera linea primer final

E|-------0-----------------------0-------
B|-------------------4---------0-----0---
G|-----2-----2-----2-----2---0-----0-----
D|---3-----3-----3-----3---------------2-
A|-3-----------3-------------------------
E|-------------------------3-------------

Stave 4:

E|-------2-----0-----------
B|-----0-----0-----0-----0-
G|---0-----0-----0-----0---
D|-------------------2-----
A|-------------------------
E|-3-----------------------

http://www.guitartabcreator.com
Guitar Tab Creator is intended to store guitar tab created through the tool. It currently does not support in-line text editing. Any text you place in here will be lost. If you need to comment on your tab, please use the "Tab Notes" section located below.