Banjo

01234567891011121314151617181920212223
E
B
G
D
A
E
B
0 1 2 3 4 5 6 7 8 9 10 11 12 13 14 15 16 17 18 19 20 21 22 23
(/) Slide Up  (\) Slide Down  (h) Hammer On  (p) Pull Off  (b) Bend (r) Release (v) Vibrato

2

D|--------------------|-----------------------|-----------------------|-----------------------|--
B|--2--2-----2--2--0--|-----0-----0-----------|-----2--2-----2--2--0--|-----0-----0-----------|--
G|--------3-----------|--3-----3-----3--1-----|--1--------3-----------|--3-----3-----3--1-----|--
D|--------------------|--------------------4--|-----------------------|--------------------4--|--
G|--------------------|-----------------------|-----------------------|-----------------------|--

6

D|--------------|--------------|-----------------|--------------------|--------------------------|--
B|-----2-----2--|-----2-----2--|-----2-----2--2--|-----2-----2-----2--|-----0--0-----0--0-----0--|--
G|--4-----4-----|--4-----4-----|--3-----3--------|--3-----3-----3-----|--1--------1--------1-----|--
D|--------------|--------------|-----------------|--------------------|--------------------------|--
G|--------------|--------------|-----------------|--------------------|--------------------------|--

11

D|--------------------------|--------------------|--4--4--4--4--4--4--4--4--|--4--8--6--8--6--8--|--
B|-----0--0-----0--0-----0--|-----0-----0-----0--|--0--0--0--0--0--0--0--0--|--------------------|--
G|--1--------1--------1-----|--1-----1-----1-----|--------------------------|--------------------|--
D|--------------------------|--------------------|--------------------------|--------------------|--
G|--------------------------|--------------------|--------------------------|--------------------|--

15

D|--------8--6--8--6--8--|--------8--6--8--6--8--|--------8--6--8--6--8--|--6--8--6--8--6--8--|--
B|--7--7-----------------|--7--7-----------------|--7--7-----------------|--------------------|--
G|-----------------------|-----------------------|-----------------------|--------------------|--
D|-----------------------|-----------------------|-----------------------|--------------------|--
G|-----------------------|-----------------------|-----------------------|--------------------|--

19

D|--6--8--6--8--6--8--|-----8-----8-----8--|-----8-----8-----8--|--------------|--------------|--
B|--------------------|--7-----7-----7-----|--7-----7-----7-----|-----0-----0--|-----0-----0--|--
G|--------------------|--------------------|--------------------|--------------|--------------|--
D|--------------------|--------------------|--------------------|--6-----6-----|--6-----6-----|--
G|--------------------|--------------------|--------------------|--------------|--------------|--

24

D|--------------|--6--6--6-----|--------------------------|--------------------------|-----|-----|--
B|-----2-----2--|--2--2--2--2--|-----0-----0-----0-----0--|-----0-----0-----0-----0--|--2--|-----|--
G|--3-----3-----|--------------|--1-----1-----1-----1-----|--1-----1-----1-----1-----|-----|-----|--
D|--------------|--------------|--------------------------|--------------------------|-----|-----|--
G|--------------|--------------|--------------------------|--------------------------|-----|-----|--

30

D|--4--3-----------4-----|--4--3-----------4-----|--4--3-----------------|--4--3-----------------|--
B|--------2-----------2--|--------2-----------2--|--------2--------2-----|--------2--------2-----|--
G|-----------------------|-----------------------|-----------1--1-----3--|-----------1--1-----3--|--
D|-----------4--4--------|-----------4--4--------|-----------------------|-----------------------|--
G|-----------------------|-----------------------|-----------------------|-----------------------|--

34

D|--4--3-----------4-----|--4--3-----------4-----|-----------|-----------|--------------------------|--
B|--------2-----4-----4--|--------2-----4-----4--|-----------|-----------|-----2--2-----2--2-----0--|--
G|-----------1-----------|-----------1-----------|--4--------|--------1--|--3--------3--------3-----|--
D|-----------------------|-----------------------|--4--------|-----------|--------------------------|--
G|-----------------------|-----------------------|-----------|-----------|--------------------------|--

39

D|-----------------------------|-----------------------|--------------------------|--6--6--6--6--6--6--6--6--|--
B|--0-----0-----0-----------2--|--2--2--2--2--2--2--2--|--2--2--2--2--2--2--2--2--|--------------------------|--
G|-----3-----3-----3--1--------|-----------------------|--------------------------|--------------------------|--
D|-----------------------4-----|-----------------------|--------------------------|--------------------------|--
G|-----------------------------|-----------------------|--------------------------|--------------------------|--

43

D|--6--6--6--6--6--6--6--6--|--------------------------|--------------------------|--4--4--4--4--4--4--4--4--|--
B|--------------------------|--4--4--4--4--4--4--4--4--|--4--4--4--4--4--4--4--4--|--------------------------|--
G|--------------------------|--------------------------|--------------------------|--------------------------|--
D|--------------------------|--------------------------|--------------------------|--------------------------|--
G|--------------------------|--------------------------|--------------------------|--------------------------|--

47

D|--4--4--4--4-----|--------------|-----------------|--------|--------------------|-----------------|--
B|-----------------|--------------|-----------------|--------|--------------------|--0--------------|--
G|-----------------|--3--3-----3--|--3--3-----3--3--|--3-----|--3-----1--3--1-----|-----3--1--------|--
D|-----------------|--------------|-----------------|--------|-----4-----------4--|-----------4-----|--
G|-----------------|--------------|-----------------|--------|--------------------|-----------------|--

53

D|-----------------|--------------|--------------|--------|--------|--------|--------|--------|--------|--------|--------|--
B|-----------------|--------------|--------------|--------|--------|--------|--------|--------|--------|--------|--------|--
G|--------1--------|--1--3--------|--------1--1--|--------|--------|--------|--------|--------|--------|--------|--------|--
D|--1--1--------4--|--------------|--1--1--------|--------|--------|--------|--------|--------|--------|--------|--------|--
G|-----------------|--------------|--------------|--------|--------|--------|--------|--------|--------|--------|--------|--

64

D|--4--3-----------4-----|--4--3-----------4-----|--4--3-----------------|--4--3-----------------|--
B|--------2-----------2--|--------2-----------2--|--------2--------2-----|--------2--------2-----|--
G|-----------------------|-----------------------|-----------1--1-----3--|-----------1--1-----3--|--
D|-----------4--4--------|-----------4--4--------|-----------------------|-----------------------|--
G|-----------------------|-----------------------|-----------------------|-----------------------|--

68

D|--4--3-----------4-----|--4--3-----------4-----|--4--3-----------4-----|--4--3-----------4-----|--4--3-----------4-----|--
B|--------2-----4-----4--|--------2-----4-----4--|--------0-----4-----4--|--------0-----4-----4--|--------2-----------2--|--
G|-----------1-----------|-----------1-----------|-----------------------|-----------------------|-----------------------|--
D|-----------------------|-----------------------|-----------4-----------|-----------4-----------|-----------4--4--------|--
G|-----------------------|-----------------------|-----------------------|-----------------------|-----------------------|--

73

D|--4--3-----------4-----|--4--3-----------------|--4--3-----------------|--4--3-----------4-----|--
B|--------2-----------2--|--------2--------2-----|--------2--------2-----|--------2-----4-----4--|--
G|-----------------------|-----------1--1-----3--|-----------1--1-----3--|-----------1-----------|--
D|-----------4--4--------|-----------------------|-----------------------|-----------------------|--
G|-----------------------|-----------------------|-----------------------|-----------------------|--

77

D|--4--3-----------4-----|--4--3-----------4-----|--4--3-----------4-----|--4--3-----------4-----|--4--3-----------4-----|--
B|--------2-----4-----4--|--------0-----4-----4--|--------0-----4-----4--|--------2-----------2--|--------2-----------2--|--
G|-----------1-----------|-----------------------|-----------------------|-----------------------|-----------------------|--
D|-----------------------|-----------4-----------|-----------4-----------|-----------4--4--------|-----------4--4--------|--
G|-----------------------|-----------------------|-----------------------|-----------------------|-----------------------|--

82

D|--4--3-----------------|--4--3-----------------|--4--3-----------4-----|--4--3-----------4-----|--4--3-----------4-----|--4--3-----------4-----|--
B|--------2--------2-----|--------2--------2-----|--------2-----4-----4--|--------2-----4-----4--|--------0-----4-----4--|--------0-----4-----4--|--
G|-----------1--1-----3--|-----------1--1-----3--|-----------1-----------|-----------1-----------|-----------------------|-----------------------|--
D|-----------------------|-----------------------|-----------------------|-----------------------|-----------4-----------|-----------4-----------|--
G|-----------------------|-----------------------|-----------------------|-----------------------|-----------------------|-----------------------|--

97

D|--------------------|-----------------|--------------------|-----------------|--------------|--
B|-----2-----2--2-----|-----------0--2--|-----2-----2--2-----|--------0--------|--------------|--
G|--3-----3--------3--|--3--3--3--------|--1-----1--------1--|--1--1-----1-----|--1-----------|--
D|--------------------|-----------------|--------------------|--------------4--|--------------|--
G|--------------------|-----------------|--------------------|-----------------|--------------|--

102

D|--------|--------|--4--3-----------4-----|--4--3-----------4-----|--4--3-----------------|--4--3-----------------|--4--3-----------4-----|--
B|--------|--------|--------2-----------4--|--------2-----------4--|--------2--------2-----|--------2--------2-----|--------2-----4-----4--|--
G|--------|--------|-----------------------|-----------------------|-----------1--1-----3--|-----------1--1-----3--|-----------1-----------|--
D|--------|--------|-----------4--4--------|-----------4--4--------|-----------------------|-----------------------|-----------------------|--
G|--------|--------|-----------------------|-----------------------|-----------------------|-----------------------|-----------------------|--

109

D|--4--3-----------4-----|--4--3--------------4--|--4--3--------------3--|--4--3-----------4-----|--4--3-----------4-----|--
B|--------2-----4-----4--|--------2-----0--2-----|--------2-----0--2-----|--------2-----------2--|--------2-----------4--|--
G|-----------1-----------|-----------------------|-----------------------|-----------------------|-----------------------|--
D|-----------------------|-----------4-----------|-----------4-----------|-----------4--4--------|-----------4--4--------|--
G|-----------------------|-----------------------|-----------------------|-----------------------|-----------------------|--

113

D|--4--3-----------------|--4--3-----------------|--4--3-----------4-----|--4--3-----------4-----|--
B|--------2--------2-----|--------2--------2-----|--------2-----4-----4--|--------2-----4-----4--|--
G|-----------1--1-----3--|-----------1--1-----3--|-----------1-----------|-----------1-----------|--
D|-----------------------|-----------------------|-----------------------|-----------------------|--
G|-----------------------|-----------------------|-----------------------|-----------------------|--

117

D|--4--3--------------4--|--4--3--------------3--|--------------|--
B|--------2-----0--2-----|--------2-----0--2-----|--2-----------|--
G|-----------------------|-----------------------|--------------|--
D|-----------4-----------|-----------4-----------|--4-----------|--
G|-----------------------|-----------------------|--------------|--

							http://www.guitartabcreator.com
Chords

Instruments
{"strings":[[[".",".",".",".",".",".","|",".",".",".",".",".",".",".","|",".",".",".",".",".",".",".","|",".",".",".",".",".",".",".","|"],[2,2,".",2,2,0,"|",".",0,".",0,".",".",".","|",".",2,2,".",2,2,0,"|",".",0,".",0,".",".",".","|"],[".",".",3,".",".",".","|",3,".",3,".",3,1,".","|",1,".",".",3,".",".",".","|",3,".",3,".",3,1,".","|"],[".",".",".",".",".",".","|",".",".",".",".",".",".",4,"|",".",".",".",".",".",".",".","|",".",".",".",".",".",".",4,"|"],[".",".",".",".",".",".","|",".",".",".",".",".",".",".","|",".",".",".",".",".",".",".","|",".",".",".",".",".",".",".","|"]],[[".",".",".",".","|",".",".",".",".","|",".",".",".",".",".","|",".",".",".",".",".",".","|",".",".",".",".",".",".",".",".","|"],[".",2,".",2,"|",".",2,".",2,"|",".",2,".",2,2,"|",".",2,".",2,".",2,"|",".",0,0,".",0,0,".",0,"|"],[4,".",4,".","|",4,".",4,".","|",3,".",3,".",".","|",3,".",3,".",3,".","|",1,".",".",1,".",".",1,".","|"],[".",".",".",".","|",".",".",".",".","|",".",".",".",".",".","|",".",".",".",".",".",".","|",".",".",".",".",".",".",".",".","|"],[".",".",".",".","|",".",".",".",".","|",".",".",".",".",".","|",".",".",".",".",".",".","|",".",".",".",".",".",".",".",".","|"]],[[".",".",".",".",".",".",".",".","|",".",".",".",".",".",".","|",4,4,4,4,4,4,4,4,"|",4,8,6,8,6,8,"|"],[".",0,0,".",0,0,".",0,"|",".",0,".",0,".",0,"|",0,0,0,0,0,0,0,0,"|",".",".",".",".",".",".","|"],[1,".",".",1,".",".",1,".","|",1,".",1,".",1,".","|",".",".",".",".",".",".",".",".","|",".",".",".",".",".",".","|"],[".",".",".",".",".",".",".",".","|",".",".",".",".",".",".","|",".",".",".",".",".",".",".",".","|",".",".",".",".",".",".","|"],[".",".",".",".",".",".",".",".","|",".",".",".",".",".",".","|",".",".",".",".",".",".",".",".","|",".",".",".",".",".",".","|"]],[[".",".",8,6,8,6,8,"|",".",".",8,6,8,6,8,"|",".",".",8,6,8,6,8,"|",6,8,6,8,6,8,"|"],[7,7,".",".",".",".",".","|",7,7,".",".",".",".",".","|",7,7,".",".",".",".",".","|",".",".",".",".",".",".","|"],[".",".",".",".",".",".",".","|",".",".",".",".",".",".",".","|",".",".",".",".",".",".",".","|",".",".",".",".",".",".","|"],[".",".",".",".",".",".",".","|",".",".",".",".",".",".",".","|",".",".",".",".",".",".",".","|",".",".",".",".",".",".","|"],[".",".",".",".",".",".",".","|",".",".",".",".",".",".",".","|",".",".",".",".",".",".",".","|",".",".",".",".",".",".","|"]],[[6,8,6,8,6,8,"|",".",8,".",8,".",8,"|",".",8,".",8,".",8,"|",".",".",".",".","|",".",".",".",".","|"],[".",".",".",".",".",".","|",7,".",7,".",7,".","|",7,".",7,".",7,".","|",".",0,".",0,"|",".",0,".",0,"|"],[".",".",".",".",".",".","|",".",".",".",".",".",".","|",".",".",".",".",".",".","|",".",".",".",".","|",".",".",".",".","|"],[".",".",".",".",".",".","|",".",".",".",".",".",".","|",".",".",".",".",".",".","|",6,".",6,".","|",6,".",6,".","|"],[".",".",".",".",".",".","|",".",".",".",".",".",".","|",".",".",".",".",".",".","|",".",".",".",".","|",".",".",".",".","|"]],[[".",".",".",".","|",6,6,6,".","|",".",".",".",".",".",".",".",".","|",".",".",".",".",".",".",".",".","|",".","|","_","|"],[".",2,".",2,"|",2,2,2,2,"|",".",0,".",0,".",0,".",0,"|",".",0,".",0,".",0,".",0,"|",2,"|","_","|"],[3,".",3,".","|",".",".",".",".","|",1,".",1,".",1,".",1,".","|",1,".",1,".",1,".",1,".","|",".","|","_","|"],[".",".",".",".","|",".",".",".",".","|",".",".",".",".",".",".",".",".","|",".",".",".",".",".",".",".",".","|",".","|","_","|"],[".",".",".",".","|",".",".",".",".","|",".",".",".",".",".",".",".",".","|",".",".",".",".",".",".",".",".","|",".","|","_","|"]],[[4,3,".",".",".",4,".","|",4,3,".",".",".",4,".","|",4,3,".",".",".",".",".","|",4,3,".",".",".",".",".","|"],[".",".",2,".",".",".",2,"|",".",".",2,".",".",".",2,"|",".",".",2,".",".",2,".","|",".",".",2,".",".",2,".","|"],[".",".",".",".",".",".",".","|",".",".",".",".",".",".",".","|",".",".",".",1,1,".",3,"|",".",".",".",1,1,".",3,"|"],[".",".",".",4,4,".",".","|",".",".",".",4,4,".",".","|",".",".",".",".",".",".",".","|",".",".",".",".",".",".",".","|"],[".",".",".",".",".",".",".","|",".",".",".",".",".",".",".","|",".",".",".",".",".",".",".","|",".",".",".",".",".",".",".","|"]],[[4,3,".",".",".",4,".","|",4,3,".",".",".",4,".","|",".","_","_","|","_","_",".","|",".",".",".",".",".",".",".",".","|"],[".",".",2,".",4,".",4,"|",".",".",2,".",4,".",4,"|",".","_","_","|","_","_",".","|",".",2,2,".",2,2,".",0,"|"],[".",".",".",1,".",".",".","|",".",".",".",1,".",".",".","|",4,"_","_","|","_","_",1,"|",3,".",".",3,".",".",3,".","|"],[".",".",".",".",".",".",".","|",".",".",".",".",".",".",".","|",4,"_","_","|","_","_",".","|",".",".",".",".",".",".",".",".","|"],[".",".",".",".",".",".",".","|",".",".",".",".",".",".",".","|",".","_","_","|","_","_",".","|",".",".",".",".",".",".",".",".","|"]],[[".",".",".",".",".",".",".",".",".","|",".",".",".",".",".",".",".","|",".",".",".",".",".",".",".",".","|",6,6,6,6,6,6,6,6,"|"],[0,".",0,".",0,".",".",".",2,"|",2,2,2,2,2,2,2,"|",2,2,2,2,2,2,2,2,"|",".",".",".",".",".",".",".",".","|"],[".",3,".",3,".",3,1,".",".","|",".",".",".",".",".",".",".","|",".",".",".",".",".",".",".",".","|",".",".",".",".",".",".",".",".","|"],[".",".",".",".",".",".",".",4,".","|",".",".",".",".",".",".",".","|",".",".",".",".",".",".",".",".","|",".",".",".",".",".",".",".",".","|"],[".",".",".",".",".",".",".",".",".","|",".",".",".",".",".",".",".","|",".",".",".",".",".",".",".",".","|",".",".",".",".",".",".",".",".","|"]],[[6,6,6,6,6,6,6,6,"|",".",".",".",".",".",".",".",".","|",".",".",".",".",".",".",".","_","|",4,4,4,4,4,4,4,4,"|"],["_","_","_",".",".",".",".",".","|",4,4,4,4,4,4,4,4,"|",4,4,4,4,4,4,4,4,"|","_","_","_","_","_","_","_","_","|"],[".",".","_",".",".",".",".",".","|",".",".",".",".",".",".",".",".","|",".",".",".",".",".",".",".","_","|","_","_","_","_","_","_","_","_","|"],[".",".","_",".",".",".",".",".","|",".",".",".",".",".",".",".",".","|",".",".",".",".",".",".",".","_","|","_","_","_","_","_","_","_","_","|"],[".",".","_",".",".",".",".",".","|",".",".",".",".",".",".",".",".","|",".",".",".",".",".",".",".","_","|","_","_","_","_","_","_","_","_","|"]],[[4,4,4,4,"_","|",".",".","_",".","|",".",".","_",".",".","|",".","_","|",".",".",".",".",".",".","|",".",".",".",".","_","|"],[".",".",".",".","_","|",".",".","_",".","|",".",".","_",".",".","|",".","_","|",".",".",".",".",".",".","|",0,".",".",".","_","|"],[".",".",".",".","_","|",3,3,"_",3,"|",3,3,"_",3,3,"|",3,"_","|",3,".",1,3,1,".","|",".",3,1,".","_","|"],[".",".",".",".","_","|",".",".","_",".","|",".",".","_",".",".","|",".","_","|",".",4,".",".",".",4,"|",".",".",".",4,"_","|"],[".",".",".",".","_","|",".",".","_",".","|",".",".","_",".",".","|",".","_","|",".",".",".",".",".",".","|",".",".",".",".","_","|"]],[[".",".",".","_",".","|",".",".","_","_","|",".",".",".",".","|","_","_","|","_","_","|","_","_","|","_","_","|","_","_","|","_","_","|","_","_","|","_","_","|"],[".",".",".","_",".","|",".",".","_","_","|",".",".",".",".","|","_","_","|","_","_","|","_","_","|","_","_","|","_","_","|","_","_","|","_","_","|","_","_","|"],[".",".",1,"_",".","|",1,3,"_","_","|",".",".",1,1,"|","_","_","|","_","_","|","_","_","|","_","_","|","_","_","|","_","_","|","_","_","|","_","_","|"],[1,1,".","_",4,"|",".",".","_","_","|",1,1,".",".","|","_","_","|","_","_","|","_","_","|","_","_","|","_","_","|","_","_","|","_","_","|","_","_","|"],[".",".",".","_",".","|",".",".","_","_","|",".",".",".",".","|","_","_","|","_","_","|","_","_","|","_","_","|","_","_","|","_","_","|","_","_","|","_","_","|"]],[[4,3,".",".",".",4,".","|",4,3,".",".",".",4,".","|",4,3,".",".",".",".",".","|",4,3,".",".",".",".",".","|"],[".",".",2,".",".",".",2,"|",".",".",2,".",".",".",2,"|",".",".",2,".",".",2,".","|",".",".",2,".",".",2,".","|"],[".",".",".",".",".",".",".","|",".",".",".",".",".",".",".","|",".",".",".",1,1,".",3,"|",".",".",".",1,1,".",3,"|"],[".",".",".",4,4,".",".","|",".",".",".",4,4,".",".","|",".",".",".",".",".",".",".","|",".",".",".",".",".",".",".","|"],[".",".",".",".",".",".",".","|",".",".",".",".",".",".",".","|",".",".",".",".",".",".",".","|",".",".",".",".",".",".",".","|"]],[[4,3,".",".",".",4,".","|",4,3,".",".",".",4,".","|",4,3,".",".",".",4,".","|",4,3,".",".",".",4,".","|",4,3,".",".",".",4,".","|"],[".",".",2,".",4,".",4,"|",".",".",2,".",4,".",4,"|",".",".",0,".",4,".",4,"|",".",".",0,".",4,".",4,"|",".",".",2,".",".",".",2,"|"],[".",".",".",1,".",".",".","|",".",".",".",1,".",".",".","|",".",".",".",".",".",".",".","|",".",".",".",".",".",".",".","|",".",".",".",".",".",".",".","|"],[".",".",".",".",".",".",".","|",".",".",".",".",".",".",".","|",".",".",".",4,".",".",".","|",".",".",".",4,".",".",".","|",".",".",".",4,4,".",".","|"],[".",".",".",".",".",".",".","|",".",".",".",".",".",".",".","|",".",".",".",".",".",".",".","|",".",".",".",".",".",".",".","|",".",".",".",".",".",".",".","|"]],[[4,3,".",".",".",4,".","|",4,3,".",".",".",".",".","|",4,3,".",".",".",".",".","|",4,3,".",".",".",4,".","|"],[".",".",2,".",".",".",2,"|",".",".",2,".",".",2,".","|",".",".",2,".",".",2,".","|",".",".",2,".",4,".",4,"|"],[".",".",".",".",".",".",".","|",".",".",".",1,1,".",3,"|",".",".",".",1,1,".",3,"|",".",".",".",1,".",".",".","|"],[".",".",".",4,4,".",".","|",".",".",".",".",".",".",".","|",".",".",".",".",".",".",".","|",".",".",".",".",".",".",".","|"],[".",".",".",".",".",".",".","|",".",".",".",".",".",".",".","|",".",".",".",".",".",".",".","|",".",".",".",".",".",".",".","|"]],[[4,3,".",".",".",4,".","|",4,3,".",".",".",4,".","|",4,3,".",".",".",4,".","|",4,3,".",".",".",4,".","|",4,3,".",".",".",4,".","|"],[".",".",2,".",4,".",4,"|",".",".",0,".",4,".",4,"|",".",".",0,".",4,".",4,"|",".",".",2,".",".",".",2,"|",".",".",2,".",".",".",2,"|"],[".",".",".",1,".",".",".","|",".",".",".",".",".",".",".","|",".",".",".",".",".",".",".","|",".",".",".",".",".",".",".","|",".",".",".",".",".",".",".","|"],[".",".",".",".",".",".",".","|",".",".",".",4,".",".",".","|",".",".",".",4,".",".",".","|",".",".",".",4,4,".",".","|",".",".",".",4,4,".",".","|"],[".",".",".",".",".",".",".","|",".",".",".",".",".",".",".","|",".",".",".",".",".",".",".","|",".",".",".",".",".",".",".","|",".",".",".",".",".",".",".","|"]],[[4,3,".",".",".",".",".","|",4,3,".",".",".",".",".","|",4,3,".",".",".",4,".","|",4,3,".",".",".",4,".","|",4,3,".",".",".",4,".","|",4,3,".",".",".",4,".","|"],[".",".",2,".",".",2,".","|",".",".",2,".",".",2,".","|",".",".",2,".",4,".",4,"|",".",".",2,".",4,".",4,"|",".",".",0,".",4,".",4,"|",".",".",0,".",4,".",4,"|"],[".",".",".",1,1,".",3,"|",".",".",".",1,1,".",3,"|",".",".",".",1,".",".",".","|",".",".",".",1,".",".",".","|",".",".",".",".",".",".",".","|",".",".",".",".",".",".",".","|"],[".",".",".",".",".",".",".","|",".",".",".",".",".",".",".","|",".",".",".",".",".",".",".","|",".",".",".",".",".",".",".","|",".",".",".",4,".",".",".","|",".",".",".",4,".",".",".","|"],[".",".",".",".",".",".",".","|",".",".",".",".",".",".",".","|",".",".",".",".",".",".",".","|",".",".",".",".",".",".",".","|",".",".",".",".",".",".",".","|",".",".",".",".",".",".",".","|"]],[[".",".",".",".",".",".","|",".",".",".",".",".","|",".",".",".",".",".",".","|",".",".",".",".",".","|",".","_","_","_","|"],[".",2,".",2,2,".","|",".",".",".",0,2,"|",".",2,".",2,2,".","|",".",".",0,".",".","|",".","_","_","_","|"],[3,".",3,".",".",3,"|",3,3,3,".",".","|",1,".",1,".",".",1,"|",1,1,".",1,".","|",1,"_","_","_","|"],[".",".",".",".",".",".","|",".",".",".",".",".","|",".",".",".",".",".",".","|",".",".",".",".",4,"|",".","_","_","_","|"],[".",".",".",".",".",".","|",".",".",".",".",".","|",".",".",".",".",".",".","|",".",".",".",".",".","|",".","_","_","_","|"]],[["_","_","|","_","_","|",4,3,".",".",".",4,".","|",4,3,".",".",".",4,".","|",4,3,".",".",".",".",".","|",4,3,".",".",".",".",".","|",4,3,".",".",".",4,".","|"],["_","_","|","_","_","|",".",".",2,".",".",".",4,"|",".",".",2,".",".",".",4,"|",".",".",2,".",".",2,".","|",".",".",2,".",".",2,".","|",".",".",2,".",4,".",4,"|"],["_","_","|","_","_","|",".",".",".",".",".",".",".","|",".",".",".",".",".",".",".","|",".",".",".",1,1,".",3,"|",".",".",".",1,1,".",3,"|",".",".",".",1,".",".",".","|"],["_","_","|","_","_","|",".",".",".",4,4,".",".","|",".",".",".",4,4,".",".","|",".",".",".",".",".",".",".","|",".",".",".",".",".",".",".","|",".",".",".",".",".",".",".","|"],["_","_","|","_","_","|",".",".",".",".",".",".",".","|",".",".",".",".",".",".",".","|",".",".",".",".",".",".",".","|",".",".",".",".",".",".",".","|",".",".",".",".",".",".",".","|"]],[[4,3,".",".",".",4,".","|",4,3,".",".",".",".",4,"|",4,3,".",".",".",".",3,"|",4,3,".",".",".",4,".","|",4,3,".",".",".",4,".","|"],[".",".",2,".",4,".",4,"|",".",".",2,".",0,2,".","|",".",".",2,".",0,2,".","|",".",".",2,".",".",".",2,"|",".",".",2,".",".",".",4,"|"],[".",".",".",1,".",".",".","|",".",".",".",".",".",".",".","|",".",".",".",".",".",".",".","|",".",".",".",".",".",".",".","|",".",".",".",".",".",".",".","|"],[".",".",".",".",".",".",".","|",".",".",".",4,".",".",".","|",".",".",".",4,".",".",".","|",".",".",".",4,4,".",".","|",".",".",".",4,4,".",".","|"],[".",".",".",".",".",".",".","|",".",".",".",".",".",".",".","|",".",".",".",".",".",".",".","|",".",".",".",".",".",".",".","|",".",".",".",".",".",".",".","|"]],[[4,3,".",".",".",".",".","|",4,3,".",".",".",".",".","|",4,3,".",".",".",4,".","|",4,3,".",".",".",4,".","|"],[".",".",2,".",".",2,".","|",".",".",2,".",".",2,".","|",".",".",2,".",4,".",4,"|",".",".",2,".",4,".",4,"|"],[".",".",".",1,1,".",3,"|",".",".",".",1,1,".",3,"|",".",".",".",1,".",".",".","|",".",".",".",1,".",".",".","|"],[".",".",".",".",".",".",".","|",".",".",".",".",".",".",".","|",".",".",".",".",".",".",".","|",".",".",".",".",".",".",".","|"],[".",".",".",".",".",".",".","|",".",".",".",".",".",".",".","|",".",".",".",".",".",".",".","|",".",".",".",".",".",".",".","|"]],[[4,3,".",".",".",".",4,"|",4,3,".",".",".",".",3,"|",".","_","_","_","|"],[".",".",2,".",0,2,".","|",".",".",2,".",0,2,".","|",2,"_","_","_","|"],[".",".",".",".",".",".",".","|",".",".",".",".",".",".",".","|",".","_","_","_","|"],[".",".",".",4,".",".",".","|",".",".",".",4,".",".",".","|",4,"_","_","_","|"],[".",".",".",".",".",".",".","|",".",".",".",".",".",".",".","|",".","_","_","_","|"]]],"numberofstrings":5,"notes":["D","B","G","D","G"],"capo":0,"stringnotes":["D6","B1","G1","D2","G5"],"comments":["2","6","11","15","19","24","30","34","39","43","47","53","64","68","73","77","82","97","102","109","113","117"],"timing":[["W","W","W",null,"W","W","W","W","W","W","W",null,"W","W","W","W","W","W","W",null,"W","W","W","W","W","W",null,null,null,null,null,"W"],["W","W","W","W",null,"W","W","W","W",null,"W","W","W","W","W",null,"W","W","W","W","W","W",null,"W","W","W","W","W","W","W","W"],["W","W","W","W","W","W","W","W",null,"W","W","W","W","W","W",null,"W","W","W","W","W","W","W","W",null,"W","W","W","W","W","W"],["W","W","W","W","W","W","W",null,"W","W","W","W","W","W","W",null,"W","W","W","W","W","W","W",null,"W","W","W","W","W","W"],["W","W","W","W","W","W",null,"W","W","W","W","W","W",null,"W","W","W","W","W","W",null,"W","W","W","W",null,"W","W","W","W"],["W","W","W","W",null,"W","W","W","W",null,"W","W","W","W","W","W","W","W",null,"W","W","W","W","W","W","W","W",null,"W",null,"W"],["W","W","W","W","W","W","W",null,"W","W","W","W","W","W","W",null,"W","W","W","W","W","W","W",null,"W","W","W","W","W","W","W"],["W",null,"W","W","W","W","W","W","W",null,"W","W","W","W","W","W","W",null,"W","W","W",null,"W",null,"W","W","W","W","W","W","W","W"],["W","W","W","W","W","W","W","W","W",null,"W","W","W","W","W","W","W",null,"W","W","W","W","W","W","W","W",null,"W","W","W","W","W","W","W","W"],["W","W","W","W","W","W","W",null,"W","W","W","W","W","W","W","W",null,"W","W","W","W","W","W",null,"W",null,"W",null,"W","W","W","W","W","W","W"],["W","W","W","W","W",null,"W","W","W","W",null,"W","W","W","W","W",null,"W","W",null,"W","W","W","W","W","W",null,"W","W","W","W","W"],["W","W","W","W","W",null,"W","W","W","W",null,"W","W","W","W",null,"W","W",null,"W","W",null,"W","W",null,"W","W",null,"W","W",null,"W","W",null,"W","W",null,"W","W"],["W","W","W","W","W","W","W",null,"W","W","W","W","W","W","W",null,"W","W","W","W","W","W","W",null,"W","W","W","W","W","W","W"],["W","W","W","W","W","W","W",null,"W","W","W","W","W","W","W",null,"W","W","W","W","W","W","W",null,"W","W","W","W","W","W","W",null,"W","W","W","W","W","W","W"],["W","W","W","W","W","W","W",null,"W","W","W","W","W","W","W",null,"W","W","W","W","W","W","W",null,"W","W","W","W","W","W","W"],["W","W","W","W","W","W","W",null,"W","W","W","W","W","W","W",null,"W","W","W","W","W","W","W",null,"W","W","W","W","W","W","W",null,"W","W","W","W","W","W","W"],["W","W","W","W","W","W","W",null,"W","W","W","W","W","W","W",null,"W","W","W","W","W","W","W",null,"W","W","W","W","W","W","W",null,"W","W","W","W","W","W","W",null,"W","W","W","W","W","W","W"],["W","W","W","W","W","W",null,"W","W","W","W","W",null,"W","W","W","W","W","W",null,"W","W","W","W","W",null,"W","W","W","W"],["W","W",null,"W","W",null,"W","W","W","W","W","W","W",null,"W","W","W","W","W","W","W",null,"W","W","W","W","W","W","W",null,"W","W","W","W","W","W","W",null,"W","W","W","W","W","W","W"],["W","W","W","W","W","W","W",null,"W","W","W","W","W","W","W",null,"W","W","W","W","W","W","W",null,"W","W","W","W","W","W","W",null,"W","W","W","W","W","W","W"],["W","W","W","W","W","W","W",null,"W","W","W","W","W","W","W",null,"W","W","W","W","W","W","W",null,"W","W","W","W","W","W","W"],["W","W","W","W","W","W","W",null,"W","W","W","W","W","W","W",null,"W","W","W","W"]],"timingvisible":false,"tabcounter":21,"stave":21,"totalstaves":22,"instrument":"5bass","selectedtuning":"5bass","version":"13"}

Member for

6 months 1 week
Submitted by ggynhuh on Thu, 2021-07-08 12:26