Sound will begin in 5 seconds

fuck software

Chords
01234567891011121314151617181920212223
E
B
G
D
A
E
B
0 1 2 3 4 5 6 7 8 9 10 11 12 13 14 15 16 17 18 19 20 21 22 23
Song Science #1: How Pros Use 6 Chords to Write Hit Songs
(/) Slide Up  (\) Slide Down  (h) Hammer On  (p) Pull Off  (b) Bend (r) Release (v) Vibrato

Stave 1:

E|---------------------------------------------------------------------------------
B|---------------------------------------------------------------------------------
G|---7-7-7-7-7-7-7---6-6-6-6-6-6-6---7-7-7-7-7-7-7---6-6-6-6-6-6-6---7-7-7-7-7-7-7-
D|---------------------------------------------------------------------------------
A|---------------------------------------------------------------------------------
E|-7---------------5---------------7---------------5---------------7---------------

Stave 2:

E|----------------------------------------------------------------------------------------------
B|---------------------5-------------------------------------------5----------------------------
G|---2-2-2-2h4/6---6-6---6-6/7---9-9/7-7-9/7-6-----2-2---2/4---6-6---6------11-11\9-9-11--------
D|------------------------------------------------------------------------------------0--11-9-9-
A|---------------------------------------------------------------------------------------0------
E|-2-------------5-------------7---------------5-2-----2-----5---------5-10---------------------

Stave 3:

E|------------------------------------------------
B|---------------------5------------------------9-
G|---2-2-2---2/4---6-6--------11-11-9-9-11-9------
D|-------------------------------------------11---
A|------------------------------------------------
E|-2-------2-----5-------2\10---------------------

Stave 4:

E|-----------------------------------------------------------------------------------------------
B|-----------------------------------------------------------------------------------------------
G|---------------------------------2-4-1---------2-4-1---------2-4-1-----------------------------
D|---------------7-7-6-2-------4---------------9-------------9-----------------------------------
A|-7-7-9-9-11-11-0-0-0-0-2---4-----------11-12---------11-12---------12-11-9-12-11-9-7-12-11-9-7-
E|-0-0-0-0-0--0----------0-2-----0---------------------------------------------------0---------0-

Stave 5:

E|-
B|-
G|-
D|-
A|-
E|-

http://www.guitartabcreator.com
Guitar Tab Creator is intended to store guitar tab created through the tool. It currently does not support in-line text editing. Any text you place in here will be lost. If you need to comment on your tab, please use the "Tab Notes" section located below.