cfgc arpeggios

Chords

01234567891011121314151617181920212223
E
B
G
D
A
E
B
0 1 2 3 4 5 6 7 8 9 10 11 12 13 14 15 16 17 18 19 20 21 22 23
(/) Slide Up  (\) Slide Down  (h) Hammer On  (p) Pull Off  (b) Bend (r) Release (v) Vibrato

Stave 1:

E|--8--3-----------3--8--5-----------5--7--3-----------3--8--3-----------3--
B|--------5-----5-----------6-----6-----------3-----3-----------5-----5-----
G|-----------5-----------------5-----------------4-----------------5--------
D|--------------------------------------------------------------------------
A|--------------------------------------------------------------------------
E|--------------------------------------------------------------------------

Stave 2:

E|--8--3-----------3--8--5-----------5--10--7-----------7--12--8-----------8--
B|--------5-----5-----------6-----6------------8-----8------------8-----8-----
G|-----------5-----------------5------------------7------------------9--------
D|----------------------------------------------------------------------------
A|----------------------------------------------------------------------------
E|----------------------------------------------------------------------------

Stave 3:

E|--12--8-----------8--13--8--------------8--10--7-----------7--12--8-----------8--
B|---------8-----8------------10------10------------8-----8------------8-----8-----
G|------------9-------------------10-------------------7------------------9--------
D|---------------------------------------------------------------------------------
A|---------------------------------------------------------------------------------
E|---------------------------------------------------------------------------------

Stave 4:

E|--12--8-----------8--13--8--------------8--15--10--------------10--15--12--------------12--
B|---------8-----8------------10------10-------------12------12--------------13------13------
G|------------9-------------------10---------------------12----------------------12----------
D|-------------------------------------------------------------------------------------------
A|-------------------------------------------------------------------------------------------
E|-------------------------------------------------------------------------------------------

							http://www.guitartabcreator.com
Instruments
{"strings":[[[8,3,".",".",".",3,8,5,".",".",".",5,7,3,".",".",".",3,8,3,".",".",".",3],[".",".",5,".",5,".",".",".",6,".",6,".",".",".",3,".",3,".",".",".",5,".",5,"."],[".",".",".",5,".",".",".",".",".",5,".",".",".",".",".",4,".",".",".",".",".",5,".","."],[".",".",".",".",".",".",".",".",".",".",".",".",".",".",".",".",".",".",".",".",".",".",".","."],[".",".",".",".",".",".",".",".",".",".",".",".",".",".",".",".",".",".",".",".",".",".",".","."],[".",".",".",".",".",".",".",".",".",".",".",".",".",".",".",".",".",".",".",".",".",".",".","."]],[[8,3,".",".",".",3,8,5,".",".",".",5,10,7,".",".",".",7,12,8,".",".",".",8],[".",".",5,".",5,".",".",".",6,".",6,".",".",".",8,".",8,".",".",".",8,".",8,"."],[".",".",".",5,".",".",".",".",".",5,".",".",".",".",".",7,".",".",".",".",".",9,".","."],[".",".",".",".",".",".",".",".",".",".",".",".",".",".",".",".",".",".",".",".",".",".",".","."],[".",".",".",".",".",".",".",".",".",".",".",".",".",".",".",".",".",".",".",".",".",".",".","."],[".",".",".",".",".",".",".",".",".",".",".",".",".",".",".",".",".",".",".",".",".",".",".","."]],[[12,8,".",".",".",8,13,8,".",".",".",8,10,7,".",".",".",7,12,8,".",".",".",8],[".",".",8,".",8,".",".",".",10,".",10,".",".",".",8,".",8,".",".",".",8,".",8,"."],[".",".",".",9,".",".",".",".",".",10,".",".",".",".",".",7,".",".",".",".",".",9,".","."],[".",".",".",".",".",".",".",".",".",".",".",".",".",".",".",".",".",".",".",".",".",".",".","."],[".",".",".",".",".",".",".",".",".",".",".",".",".",".",".",".",".",".",".",".",".",".",".","."],[".",".",".",".",".",".",".",".",".",".",".",".",".",".",".",".",".",".",".",".",".",".",".","."]],[[12,8,".",".",".",8,13,8,".",".",".",8,15,10,".",".",".",10,15,12,".",".",".",12],[".",".",8,".",8,".",".",".",10,".",10,".",".",".",12,".",12,".",".",".",13,".",13,"."],[".",".",".",9,".",".",".",".",".",10,".",".",".",".",".",12,".",".",".",".",".",12,".","."],[".",".",".",".",".",".",".",".",".",".",".",".",".",".",".",".",".",".",".",".",".",".",".","."],[".",".",".",".",".",".",".",".",".",".",".",".",".",".",".",".",".",".",".",".",".",".",".","."],[".",".",".",".",".",".",".",".",".",".",".",".",".",".",".",".",".",".",".",".",".",".",".","."]]],"numberofstrings":6,"notes":["E","B","G","D","A","E","B"],"capo":0,"stringnotes":["E4","B3","G3","D3","A2","E2"],"comments":["Stave 1:","Stave 2:","Stave 3:","Stave 4:"],"timing":[["W","W","W","W","W","W","W","W","W","W","W","W","W","W","W","W","W","W","W","W","W","W","W","W"],["W","W","W","W","W","W","W","W","W","W","W","W","W","W","W","W","W","W","W","W","W","W","W","W"],["W","W","W","W","W","W","W","W","W","W","W","W","W","W","W","W","W","W","W","W","W","W","W","W"],["W","W","W","W","W","W","W","W","W","W","W","W","W","W","W","W","W","W","W","W","W","W","W","W"]],"timingvisible":false,"tabcounter":24,"stave":3,"totalstaves":4,"instrument":"6guitar","selectedtuning":"6_standard","version":"13"}

Member for

1 hour 1 minute
About Me
Learning guitar
Submitted by Getafix on Sat, 2020-10-17 10:50