Sound will begin in 5 seconds

avavainouva guitare tab

Chords
01234567891011121314151617181920212223
E
B
G
D
A
E
B
0 1 2 3 4 5 6 7 8 9 10 11 12 13 14 15 16 17 18 19 20 21 22 23
(/) Slide Up  (\) Slide Down  (h) Hammer On  (p) Pull Off  (b) Bend (r) Release (v) Vibrato

1st part

E|--7--7----------------5--5--3--2h3--------------3--2--2h3--3--3--2h3--5--3--2h3-----------
B|--------8--10--12-------------------5--3--3--3-----------------------------------3--5-----
G|------------------------------------------------------------------------------------------
D|-------------------2-------------------------------------------------------------------2--
A|-------------------2-------------------------------------------------------------------2--
E|------------------------------------------------------------------------------------------

base part

E|-------------0----------------0--
B|----------0----------------0-----
G|-------0----------------0--------
D|-----2h---------------2h---------
A|-----2----------------2----------
E|--0--3----------0--3-------------

2nd part

E|-----3--------3--5--5\7--------5/3--2h3-----------------3--2--3--3--2h3-----3--2h3-----------
B|--------0----------------0---------------5--3--3--3--3-------------------5----------3-----5--
G|-----------0----------------0----------------------------------------------------------------
D|---------------------------------------------------------------------------------------------
A|---------------------------------------------------------------------------------------------
E|--0------------------------------------------------------------------------------------0-----

last part

E|--------------3--5p3--2--0--3--3--5p2--0--2--2--2--2--2--2--2h2-----2--3--2--0--------
B|--5--5--5--5-----------------------------------------------------3--------------3--5--
G|--------------------------------------------------------------------------------------
D|--------------------------------------------------------------------------------------
A|--------------------------------------------------------------------------------------
E|--------------------------------------------------------------------------------------

http://www.guitartabcreator.com
Guitar Tab Creator is intended to store guitar tab created through the tool. It currently does not support in-line text editing. Any text you place in here will be lost. If you need to comment on your tab, please use the "Tab Notes" section located below.