Sound will begin in 5 seconds

Molasses

Chords
01234567891011121314151617181920212223
E
B
G
D
A
E
B
0 1 2 3 4 5 6 7 8 9 10 11 12 13 14 15 16 17 18 19 20 21 22 23
Song Science #1: How Pros Use 6 Chords to Write Hit Songs
(/) Slide Up  (\) Slide Down  (h) Hammer On  (p) Pull Off  (b) Bend (r) Release (v) Vibrato

Stave 1:

E|------------------------
B|-----10-----9-----8-----
G|-----10-----9-----8-----
D|-----10-----9-----8-----
A|------------------------
E|-----10-----9-----8-----

Stave 2:

E|------------------8-----
B|-----3-----10-----6-----
G|-----3-----10-----5-----
D|-----3-----10-----7-----
A|------------------5-----
E|-----3-----10-----5-----

Stave 3:

E|-----------------
B|-----3-----3-----
G|-----3-----3-----
D|-----3-----2-----
A|-----------3-----
E|-----3-----------

Stave 4:

E|-----6-----6-----4-----------------6-----6-----4-----------
B|-----6-----6-----4-----1-----3-----6-----6-----4-----3-----
G|-----7-----6-----4-----------------7-----6-----4-----3-----
D|-----8-----7-----5-----------3-----8-----7-----5-----3-----
A|-----6-----8-----6-----------2-----6-----8-----6-----------
E|-----------6-----4-----3-----------------6-----4-----3-----

Stave 5:

E|-----1-----------------6-----5-----------6-----
B|-----1-----3-----5-----6-----5-----3-----6-----
G|-----2-----3-----5-----7-----6-----3-----7-----
D|-----3-----3-----5-----8-----5-----3-----8-----
A|-----1-----------------6-----7-----------6-----
E|-----1-----3-----5-----6-----5-----3-----------

Stave 6:

E|-----------10h12-----
B|-----3-----10--------
G|-----3-----10--------
D|-----3-----10--------
A|---------------------
E|-----3---------------

http://www.guitartabcreator.com
Guitar Tab Creator is intended to store guitar tab created through the tool. It currently does not support in-line text editing. Any text you place in here will be lost. If you need to comment on your tab, please use the "Tab Notes" section located below.