By Your Side Bass Tab by Genesis

Chords

01234567891011121314151617181920212223
E
B
G
D
A
E
B
0 1 2 3 4 5 6 7 8 9 10 11 12 13 14 15 16 17 18 19 20 21 22 23
(/) Slide Up  (\) Slide Down  (h) Hammer On  (p) Pull Off  (b) Bend (r) Release (v) Vibrato

Stave 1:

G|-------------------------------------------------
D|-------------------------------------------------
A|------10----8h10-8-------8h10-8-7----7-8/10------
E|-3/10-----------------10-----------------------3-
B|-------------------------------------------------

Stave 2:

G|-------------------------------------------------------------
D|-------------------------------------------------------------
A|------5-7----7-5---------------------------------------------
E|-8------------------8--------3-3-3--------3-3-3--------3-3-3-
B|----------------------8\1-------------3h5----------3h5-------

Stave 3:

G|--------------------------------------------------
D|--------------------------------------------------
A|--------------7-7-7----5-5-5-----5-3-3-3----3-3-3-
E|-8-8-8----7-8----------------3/5------------------
B|--------------------------------------------------

Stave 4:

G|-----------------------------------------------------------------
D|-----------------------------------------------------------------
A|-----------------5-5-5-5-5-5-5-5-3-3-3-3-3-3-3-3-3-3-3-3-3-3-3-3-
E|-3-3-3-3-3-3-3-3-------------------------------------------------
B|-----------------------------------------------------------------

Stave 5:

G|-----------------------------------------------------------------
D|-----------------------------------------------------------------
A|-7-7-7-7-7-7-7-7-5-5-5-5-5-5-5-5-3-3-3-3-3-3-3-3-3-3-3-3-3-3-3-3-
E|-----------------------------------------------------------------
B|-----------------------------------------------------------------

Stave 6:

G|--------------------------------------------------------------
D|--------------------------------------------------------------
A|-----------------5-5-5-5-5-5-5-5-5h7-7-7-5h7-5----------------
E|-3-3-3-3-3-3-3-3-------------------------------7-5-0-0-0----0-
B|--------------------------------------------------------------

Stave 7:

G|---------------------------------------------------------------------------
D|---------------------------------------------------------------------------
A|--------0-2-3-3-3-3-3-3-3-3--------------10-8-------8h10-8-7----7-6----5---
E|-------------------------------3----3/10---------10----------------------3-
B|-3-3-----------------------------------------------------------------------

Stave 8:

G|-----------------------------------------------------------------------
D|-----------------------------------------------------------------------
A|---5-7-5h7-5----7------------------------------------------------3-3-3-
E|-8----------------8-----------3-3-3--------3-3-3--------3-3-3----------
B|-----------------------8\1-------------3h5----------3h5----------------

Stave 9:

G|-------------------------------------------------------------------
D|-------------------------------------------------------------------
A|------------------------5-3-3-3----3-3-3----3----------------------
E|--------------------3/5--------------------------3-3-3-3-3-3-3-3h5-
B|-1-3-5-5-5----3-3-3------------------------------------------------

Stave 10:

G|-----------------------------------------------------------------
D|-----------------------------------------------------------------
A|-----------------------------------------------------------------
E|-----------------------------------------------------------------
B|-3-3-3-3-3-3-3-3-1-1-1-1-1-1-1-1-1-1-1-1-1-1-1-3-5-5-5-5-5-5-5-5-

Stave 11:

G|-------------------------------------------------------------------------
D|-------------------------------------------------------------------------
A|-------------------------------------------------------------------------
E|-------------------------------------------------------3-3-3-3-3-3-3-3h5-
B|-3-3-3-3-3-3-3-3-1-1-1-1-1-1-1/13-13-13-13-13-13-13-13-------------------

Stave 12:

G|------------------------------------------------------------------
D|------------------------------------------------------------------
A|----------------------------------------------0-2-3-3-3-3-3-3-3-3-
E|--------------------------3---------------------------------------
B|-3-3-3-3-3-3-3-3----5-5-3---3-5----5-0----3-3---------------------

Stave 13:

G|--------------------------------------------------------------------------
D|--------------------------------------------------------------------------
A|------------------------------------------------------------5-5-5-5-5-5-5-
E|-3-3-3-3-3-3-3-3/10-10-10-10-10-10-10-10----3-3-3-3-3-3-3-3---------------
B|--------------------------------------------------------------------------

Stave 14:

G|-----------------------------------------------------------------------------------
D|-----------------------------------------------------------------------------------
A|-3-3-3-3-3-3-3-3-3-3-3-3-3-3-3-----------------------------------------------------
E|-----------------------------------------------------------------------------------
B|-------------------------------1-1-3-5-5-5-5-5-5-5-5-3-3-3-3-3-3-3-3-1-1-1-1-1-1-1-

Stave 15:

G|--------------------------------------------------------------------------------------
D|--------------------------------------------------------------------------------------
A|-------------------------------------------5-5-5-5-5-5-5-5h7-7-7-5h7-5----------------
E|---------------------------3-3-3-3-3-3-3-3-----------------------------7-5-0-0-0----0-
B|-1/13-13-13-13-13-13-13-13------------------------------------------------------------

Stave 16:

G|-----------------------------------------------------------------------
D|-----------------------------------------------------------------------
A|--------0-2-3-3-3-3-3-3-3-3-----------10-8-------8h10-8-7----7-8----10-
E|----------------------------3----3/10---------10-----------------------
B|-3-3-------------------------------------------------------------------

Stave 17:

G|----------------------------------------------------
D|----------------------------------------------------
A|-----------10-8-------8h10-8-7----7h8-7-6----5------
E|-3----3/10---------10-----------------------------3-
B|----------------------------------------------------

Stave 18:

G|----------------------------------------------------------------------------------------------
D|----------------------------------------------------------------------------------------------
A|------------------------------------3-3-3-----------------------------------------------------
E|-3-3-3--------3-3-3--------3-3-3--------------------------------------------------------------
B|----------3h5----------3h5----------------1-3-5-5-5----3-3-3----1-1-1/13-13-13-13-13-13-13-13-

Stave 19:

G|----------------------------------------------------------------------------------------
D|----------------------------------------------------------------------------------------
A|-----------------5-5-5-5-5-5-5-5-3-3-3-3-3-3-3-3----3-2-0-------------------7-5-5-5-5-5-
E|-3-3-3-3-3-3-3-3------------------------------------------3-2-0-0-0-0-0-0/7-------------
B|----------------------------------------------------------------------------------------

Stave 20:

G|-------------------------------------------------------------------------------
D|-------------------------------------------------------------------------------
A|---0-2-3-3-3-3-3-3-3-3-3-3-3-3-3-3-3-3-----------------------------------------
E|-0-------------------------------------3-3-3-3-3-3-3-3/10-10-10-10-10-10-10-10-
B|-------------------------------------------------------------------------------

Stave 21:

G|-------------------------------------------------------------------------------------------
D|-------------------------------------------------------------------------------------------
A|-------------------------------0-2-3-3-3-3-3-3-3-3-----------------------------------------
E|-------3------0h2-----3----------------------------3-3-3-3-3-3-3-3/10-10-10-10-10-10-10-10-
B|-5-3-5------3-----3-5------3-3-------------------------------------------------------------

Stave 22:

G|--------------------------------------------------------------------------------------------
D|--------------------------------------------------------------------------------------------
A|-10-10-10-10-10-10-10-10-10-10-10-10-10-10-10\3-3-3-3-3-3-3-3-3-3-3-3-----------------------
E|--------------------------------------------------------------------------------------------
B|----------------------------------------------------------------------1-1-3-5-5-5-5-5-5-5-5-

Stave 23:

G|------------------------------------------------------------------------------------------
D|------------------------------------------------------------------------------------------
A|--------------------------------------------------------------------------5-5-5-5-5-5-5-5-
E|----------------------------------------------------------3-3-3-3-3-3-3-3-----------------
B|-3-3-3-3-3-3-3-3-1-1-1-1-1-1-1/13-13-13-13-13-13-13-13------------------------------------

Stave 24:

G|--------------------------------------------------------------------------------------------
D|--------------------------------------------------------------------------------------------
A|-7-5----------------------0-2-3-3-3-3-3-3-3-3--------------10-8-------8h10-8-7----7-8----10-
E|-----5-3-----------------------------------------3----3/10---------10-----------------------
B|---------3-5-5-5----5-3-3-------------------------------------------------------------------

Stave 25:

G|----------------------------------------------------
D|----------------------------------------------------
A|-----------10-8-------8h10-8-7----7h8-7-6----5------
E|-3----3/10---------10-----------------------------3-
B|----------------------------------------------------

							http://www.guitartabcreator.com
Instruments
{"strings":[[[".",".",".",".","_",".",".",".",".","_",".",".",".",".",".",".","_",".",".",".",".","_","."],[".",".",".",".","_",".",".",".",".","_",".",".",".",".",".",".","_",".",".",".",".","_","."],[".",".",".",10,"_",8,"h",10,8,"_",".",8,"h",10,8,7,"_",7,8,"/",10,"_","."],[3,"/",10,".","_",".",".",".",".","_",10,".",".",".",".",".","_",".",".",".",".","_",3],[".",".",".",".","_",".",".",".",".","_",".",".",".",".",".",".","_",".",".",".",".","_","."]],[[".","_",".",".","_",".",".","_",".",".",".",".","_",".",".",".","_",".",".",".",".",".",".","_",".",".",".",".",".","."],[".","_",".",".","_",".",".","_",".",".",".",".","_",".",".",".","_",".",".",".",".",".",".","_",".",".",".",".",".","."],[".","_",5,7,"_",7,5,"_",".",".",".",".","_",".",".",".","_",".",".",".",".",".",".","_",".",".",".",".",".","."],[8,"_",".",".","_",".",".","_",8,".",".",".","_",3,3,3,"_",".",".",".",3,3,3,"_",".",".",".",3,3,3],[".","_",".",".","_",".",".","_",".",8,"\\",1,"_",".",".",".","_",3,"h",5,".",".",".","_",3,"h",5,".",".","."]],[[".",".",".","_",".",".",".",".",".","_",".",".",".",".",".",".",".",".",".",".","_",".",".","."],[".",".",".","_",".",".",".",".",".","_",".",".",".",".",".",".",".",".",".",".","_",".",".","."],[".",".",".","_",".",".",7,7,7,"_",5,5,5,".",".",".",5,3,3,3,"_",3,3,3],[8,8,8,"_",7,8,".",".",".","_",".",".",".",3,"/",5,".",".",".",".","_",".",".","."],[".",".",".","_",".",".",".",".",".","_",".",".",".",".",".",".",".",".",".",".","_",".",".","."]],[[".",".",".",".",".",".",".",".",".",".",".",".",".",".",".",".",".",".",".",".",".",".",".",".",".",".",".",".",".",".",".","."],[".",".",".",".",".",".",".",".",".",".",".",".",".",".",".",".",".",".",".",".",".",".",".",".",".",".",".",".",".",".",".","."],[".",".",".",".",".",".",".",".",5,5,5,5,5,5,5,5,3,3,3,3,3,3,3,3,3,3,3,3,3,3,3,3],[3,3,3,3,3,3,3,3,".",".",".",".",".",".",".",".",".",".",".",".",".",".",".",".",".",".",".",".",".",".",".","."],[".",".",".",".",".",".",".",".",".",".",".",".",".",".",".",".",".",".",".",".",".",".",".",".",".",".",".",".",".",".",".","."]],[[".",".",".",".",".",".",".",".",".",".",".",".",".",".",".",".",".",".",".",".",".",".",".",".",".",".",".",".",".",".",".","."],[".",".",".",".",".",".",".",".",".",".",".",".",".",".",".",".",".",".",".",".",".",".",".",".",".",".",".",".",".",".",".","."],[7,7,7,7,7,7,7,7,5,5,5,5,5,5,5,5,3,3,3,3,3,3,3,3,3,3,3,3,3,3,3,3],[".",".",".",".",".",".",".",".",".",".",".",".",".",".",".",".",".",".",".",".",".",".",".",".",".",".",".",".",".",".",".","."],[".",".",".",".",".",".",".",".",".",".",".",".",".",".",".",".",".",".",".",".",".",".",".",".",".",".",".",".",".",".",".","."]],[[".",".",".",".",".",".",".",".",".",".",".",".",".",".",".",".",".",".",".",".",".",".",".",".",".",".",".",".",".",".","_","."],[".",".",".",".",".",".",".",".",".",".",".",".",".",".",".",".",".",".",".",".",".",".",".",".",".",".",".",".",".",".","_","."],[".",".",".",".",".",".",".",".",5,5,5,5,5,5,5,5,5,"h",7,7,7,5,"h",7,5,".",".",".",".",".","_","."],[3,3,3,3,3,3,3,3,".",".",".",".",".",".",".",".",".",".",".",".",".",".",".",".",".",7,5,0,0,0,"_",0],[".",".",".",".",".",".",".",".",".",".",".",".",".",".",".",".",".",".",".",".",".",".",".",".",".",".",".",".",".",".","_","."]],[[".",".","_",".",".",".",".",".",".",".",".",".",".","_",".","_",".",".",".",".",".","_",".",".",".",".",".",".","_",".",".","_",".","."],[".",".","_",".",".",".",".",".",".",".",".",".",".","_",".","_",".",".",".",".",".","_",".",".",".",".",".",".","_",".",".","_",".","."],[".",".","_",0,2,3,3,3,3,3,3,3,3,"_",".","_",".",".",".",10,8,"_",".",8,"h",10,8,7,"_",7,6,"_",5,"."],[".",".","_",".",".",".",".",".",".",".",".",".",".","_",3,"_",3,"/",10,".",".","_",10,".",".",".",".",".","_",".",".","_",".",3],[3,3,"_",".",".",".",".",".",".",".",".",".",".","_",".","_",".",".",".",".",".","_",".",".",".",".",".",".","_",".",".","_",".","."]],[[".",".",".",".",".",".",".","_",".",".","_",".",".",".","_",".",".",".","_",".",".",".",".",".",".","_",".",".",".",".",".",".","_",".",".","."],[".",".",".",".",".",".",".","_",".",".","_",".",".",".","_",".",".",".","_",".",".",".",".",".",".","_",".",".",".",".",".",".","_",".",".","."],[".",5,7,5,"h",7,5,"_",7,".","_",".",".",".","_",".",".",".","_",".",".",".",".",".",".","_",".",".",".",".",".",".","_",3,3,3],[8,".",".",".",".",".",".","_",".",8,"_",".",".",".","_",3,3,3,"_",".",".",".",3,3,3,"_",".",".",".",3,3,3,"_",".",".","."],[".",".",".",".",".",".",".","_",".",".","_",8,"\\",1,"_",".",".",".","_",3,"h",5,".",".",".","_",3,"h",5,".",".",".","_",".",".","."]],[[".",".",".",".",".","_",".",".",".",".",".",".",".",".",".",".","_",".",".",".","_",".","_",".",".",".",".",".",".",".",".",".","."],[".",".",".",".",".","_",".",".",".",".",".",".",".",".",".",".","_",".",".",".","_",".","_",".",".",".",".",".",".",".",".",".","."],[".",".",".",".",".","_",".",".",".",".",".",".",5,3,3,3,"_",3,3,3,"_",3,"_",".",".",".",".",".",".",".",".",".","."],[".",".",".",".",".","_",".",".",".",3,"/",5,".",".",".",".","_",".",".",".","_",".","_",3,3,3,3,3,3,3,3,"h",5],[1,3,5,5,5,"_",3,3,3,".",".",".",".",".",".",".","_",".",".",".","_",".","_",".",".",".",".",".",".",".",".",".","."]],[[".",".",".",".",".",".",".",".",".",".",".",".",".",".",".",".",".",".",".",".",".",".",".",".",".",".",".",".",".",".",".","."],[".",".",".",".",".",".",".",".",".",".",".",".",".",".",".",".",".",".",".",".",".",".",".",".",".",".",".",".",".",".",".","."],[".",".",".",".",".",".",".",".",".",".",".",".",".",".",".",".",".",".",".",".",".",".",".",".",".",".",".",".",".",".",".","."],[".",".",".",".",".",".",".",".",".",".",".",".",".",".",".",".",".",".",".",".",".",".",".",".",".",".",".",".",".",".",".","."],[3,3,3,3,3,3,3,3,1,1,1,1,1,1,1,1,1,1,1,1,1,1,1,3,5,5,5,5,5,5,5,5]],[[".",".",".",".",".",".",".",".",".",".",".",".",".",".",".",".",".",".",".",".",".",".",".",".",".",".",".",".",".",".",".",".",".","."],[".",".",".",".",".",".",".",".",".",".",".",".",".",".",".",".",".",".",".",".",".",".",".",".",".",".",".",".",".",".",".",".",".","."],[".",".",".",".",".",".",".",".",".",".",".",".",".",".",".",".",".",".",".",".",".",".",".",".",".",".",".",".",".",".",".",".",".","."],[".",".",".",".",".",".",".",".",".",".",".",".",".",".",".",".",".",".",".",".",".",".",".",".",3,3,3,3,3,3,3,3,"h",5],[3,3,3,3,3,3,3,3,1,1,1,1,1,1,1,"/",13,13,13,13,13,13,13,13,".",".",".",".",".",".",".",".",".","."]],[[".",".",".",".",".",".",".",".","_",".",".",".",".",".",".","_",".",".","_",".",".",".",".",".",".",".",".",".",".",".","."],[".",".",".",".",".",".",".",".","_",".",".",".",".",".",".","_",".",".","_",".",".",".",".",".",".",".",".",".",".",".","."],[".",".",".",".",".",".",".",".","_",".",".",".",".",".",".","_",".",".","_",".",".",0,2,3,3,3,3,3,3,3,3],[".",".",".",".",".",".",".",".","_",".",".",".",3,".",".","_",".",".","_",".",".",".",".",".",".",".",".",".",".",".","."],[3,3,3,3,3,3,3,3,"_",5,5,3,".",3,5,"_",5,0,"_",3,3,".",".",".",".",".",".",".",".",".","."]],[[".",".",".",".",".",".",".",".",".",".",".",".",".",".",".",".",".","_",".",".",".",".",".",".",".",".",".",".",".",".",".",".","."],[".",".",".",".",".",".",".",".",".",".",".",".",".",".",".",".",".","_",".",".",".",".",".",".",".",".",".",".",".",".",".",".","."],[".",".",".",".",".",".",".",".",".",".",".",".",".",".",".",".",".","_",".",".",".",".",".",".",".",".",5,5,5,5,5,5,5],[3,3,3,3,3,3,3,3,"/",10,10,10,10,10,10,10,10,"_",3,3,3,3,3,3,3,3,".",".",".",".",".",".","."],[".",".",".",".",".",".",".",".",".",".",".",".",".",".",".",".",".","_",".",".",".",".",".",".",".",".",".",".",".",".",".",".","."]],[[".",".",".",".",".",".",".",".",".",".",".",".",".",".",".",".",".",".",".",".",".",".",".",".",".",".",".",".",".",".",".",".",".",".",".",".",".",".",".",".","."],[".",".",".",".",".",".",".",".",".",".",".",".",".",".",".",".",".",".",".",".",".",".",".",".",".",".",".",".",".",".",".",".",".",".",".",".",".",".",".",".","."],[3,3,3,3,3,3,3,3,3,3,3,3,3,3,3,".",".",".",".",".",".",".",".",".",".",".",".",".",".",".",".",".",".",".",".",".",".",".",".",".","."],[".",".",".",".",".",".",".",".",".",".",".",".",".",".",".",".",".",".",".",".",".",".",".",".",".",".",".",".",".",".",".",".",".",".",".",".",".",".",".",".","."],[".",".",".",".",".",".",".",".",".",".",".",".",".",".",".",1,1,3,5,5,5,5,5,5,5,5,3,3,3,3,3,3,3,3,1,1,1,1,1,1,1]],[[".",".",".",".",".",".",".",".",".",".",".",".",".",".",".",".",".",".",".",".",".",".",".",".",".",".",".",".",".",".",".",".",".",".",".",".",".",".",".","_","."],[".",".",".",".",".",".",".",".",".",".",".",".",".",".",".",".",".",".",".",".",".",".",".",".",".",".",".",".",".",".",".",".",".",".",".",".",".",".",".","_","."],[".",".",".",".",".",".",".",".",".",".",".",".",".",".",".",".",".",".",5,5,5,5,5,5,5,5,"h",7,7,7,5,"h",7,5,".",".",".",".",".","_","."],[".",".",".",".",".",".",".",".",".",".",3,3,3,3,3,3,3,3,".",".",".",".",".",".",".",".",".",".",".",".",".",".",".",".",7,5,0,0,0,"_",0],[1,"/",13,13,13,13,13,13,13,13,".",".",".",".",".",".",".",".",".",".",".",".",".",".",".",".",".",".",".",".",".",".",".",".",".",".",".",".",".","_","."]],[[".",".","_",".",".",".",".",".",".",".",".",".",".",".","_",".",".",".",".",".","_",".",".",".",".",".",".","_",".",".","_","."],[".",".","_",".",".",".",".",".",".",".",".",".",".",".","_",".",".",".",".",".","_",".",".",".",".",".",".","_",".",".","_","."],[".",".","_",0,2,3,3,3,3,3,3,3,3,".","_",".",".",".",10,8,"_",".",8,"h",10,8,7,"_",7,8,"_",10],[".",".","_",".",".",".",".",".",".",".",".",".",".",3,"_",3,"/",10,".",".","_",10,".",".",".",".",".","_",".",".","_","."],[3,3,"_",".",".",".",".",".",".",".",".",".",".",".","_",".",".",".",".",".","_",".",".",".",".",".",".","_",".",".","_","."]],[[".","_",".",".",".",".",".","_",".",".",".",".",".",".","_",".",".",".",".",".","_",".","_","."],[".","_",".",".",".",".",".","_",".",".",".",".",".",".","_",".",".",".",".",".","_",".","_","."],[".","_",".",".",".",10,8,"_",".",8,"h",10,8,7,"_",7,"h",8,7,6,"_",5,"_","."],[3,"_",3,"/",10,".",".","_",10,".",".",".",".",".","_",".",".",".",".",".","_",".","_",3],[".","_",".",".",".",".",".","_",".",".",".",".",".",".","_",".",".",".",".",".","_",".","_","."]],[[".",".",".","_",".",".",".",".",".",".","_",".",".",".",".",".",".","_",".",".",".",".",".",".",".",".","_",".",".",".","_",".",".",".",".",".",".",".",".",".",".",".","."],[".",".",".","_",".",".",".",".",".",".","_",".",".",".",".",".",".","_",".",".",".",".",".",".",".",".","_",".",".",".","_",".",".",".",".",".",".",".",".",".",".",".","."],[".",".",".","_",".",".",".",".",".",".","_",".",".",".",".",".",".","_",3,3,3,".",".",".",".",".","_",".",".",".","_",".",".",".",".",".",".",".",".",".",".",".","."],[3,3,3,"_",".",".",".",3,3,3,"_",".",".",".",3,3,3,"_",".",".",".",".",".",".",".",".","_",".",".",".","_",".",".",".",".",".",".",".",".",".",".",".","."],[".",".",".","_",3,"h",5,".",".",".","_",3,"h",5,".",".",".","_",".",".",".",1,3,5,5,5,"_",3,3,3,"_",1,1,1,"/",13,13,13,13,13,13,13,13]],[[".",".",".",".",".",".",".",".",".",".",".",".",".",".",".",".",".",".",".",".",".",".",".",".","_",".",".",".",".",".",".",".",".",".",".",".",".",".",".",".",".",".",".","."],[".",".",".",".",".",".",".",".",".",".",".",".",".",".",".",".",".",".",".",".",".",".",".",".","_",".",".",".",".",".",".",".",".",".",".",".",".",".",".",".",".",".",".","."],[".",".",".",".",".",".",".",".",5,5,5,5,5,5,5,5,3,3,3,3,3,3,3,3,"_",3,2,0,".",".",".",".",".",".",".",".",".",".",7,5,5,5,5,5],[3,3,3,3,3,3,3,3,".",".",".",".",".",".",".",".",".",".",".",".",".",".",".",".","_",".",".",".",3,2,0,0,0,0,0,0,"/",7,".",".",".",".",".","."],[".",".",".",".",".",".",".",".",".",".",".",".",".",".",".",".",".",".",".",".",".",".",".",".","_",".",".",".",".",".",".",".",".",".",".",".",".",".",".",".",".",".",".","."]],[[".",".",".",".",".",".",".",".",".",".",".",".",".",".",".",".",".",".",".",".",".",".",".",".",".",".",".",".",".",".",".",".",".",".",".","."],[".",".",".",".",".",".",".",".",".",".",".",".",".",".",".",".",".",".",".",".",".",".",".",".",".",".",".",".",".",".",".",".",".",".",".","."],[".",0,2,3,3,3,3,3,3,3,3,3,3,3,3,3,3,3,3,".",".",".",".",".",".",".",".",".",".",".",".",".",".",".",".","."],[0,".",".",".",".",".",".",".",".",".",".",".",".",".",".",".",".",".",".",3,3,3,3,3,3,3,3,"/",10,10,10,10,10,10,10,10],[".",".",".",".",".",".",".",".",".",".",".",".",".",".",".",".",".",".",".",".",".",".",".",".",".",".",".",".",".",".",".",".",".",".",".","."]],[[".",".",".",".","_",".",".",".",".",".",".",".","_",".",".",".",".",".",".",".",".",".",".",".",".",".",".",".",".",".",".",".",".",".",".",".",".",".",".",".",".","."],[".",".",".",".","_",".",".",".",".",".",".",".","_",".",".",".",".",".",".",".",".",".",".",".",".",".",".",".",".",".",".",".",".",".",".",".",".",".",".",".",".","."],[".",".",".",".","_",".",".",".",".",".",".",".","_",".",".",0,2,3,3,3,3,3,3,3,3,".",".",".",".",".",".",".",".",".",".",".",".",".",".",".",".","."],[".",".",".",3,"_",".",0,"h",2,".",".",3,"_",".",".",".",".",".",".",".",".",".",".",".",".",3,3,3,3,3,3,3,3,"/",10,10,10,10,10,10,10,10],[5,3,5,".","_",3,".",".",".",3,5,".","_",3,3,".",".",".",".",".",".",".",".",".",".",".",".",".",".",".",".",".",".",".",".",".",".",".",".",".",".","."]],[[".",".",".",".",".",".",".",".",".",".",".",".",".",".",".",".",".",".",".",".",".",".",".",".",".",".",".",".",".",".",".",".",".",".",".",".",".",".","."],[".",".",".",".",".",".",".",".",".",".",".",".",".",".",".",".",".",".",".",".",".",".",".",".",".",".",".",".",".",".",".",".",".",".",".",".",".",".","."],[10,10,10,10,10,10,10,10,10,10,10,10,10,10,10,"\\",3,3,3,3,3,3,3,3,3,3,3,3,".",".",".",".",".",".",".",".",".",".","."],[".",".",".",".",".",".",".",".",".",".",".",".",".",".",".",".",".",".",".",".",".",".",".",".",".",".",".",".",".",".",".",".",".",".",".",".",".",".","."],[".",".",".",".",".",".",".",".",".",".",".",".",".",".",".",".",".",".",".",".",".",".",".",".",".",".",".",".",1,1,3,5,5,5,5,5,5,5,5]],[[".",".",".",".",".",".",".",".",".",".",".",".",".",".",".",".",".",".",".",".",".",".",".",".","_",".",".",".",".",".",".",".",".",".",".",".",".",".",".",".","."],[".",".",".",".",".",".",".",".",".",".",".",".",".",".",".",".",".",".",".",".",".",".",".",".","_",".",".",".",".",".",".",".",".",".",".",".",".",".",".",".","."],[".",".",".",".",".",".",".",".",".",".",".",".",".",".",".",".",".",".",".",".",".",".",".",".","_",".",".",".",".",".",".",".",".",5,5,5,5,5,5,5,5],[".",".",".",".",".",".",".",".",".",".",".",".",".",".",".",".",".",".",".",".",".",".",".",".","_",3,3,3,3,3,3,3,3,".",".",".",".",".",".",".","."],[3,3,3,3,3,3,3,3,1,1,1,1,1,1,1,"/",13,13,13,13,13,13,13,13,"_",".",".",".",".",".",".",".",".",".",".",".",".",".",".",".","."]],[[".",".",".",".",".",".",".",".","_",".",".",".",".",".",".",".",".",".",".",".",".",".","_",".","_",".",".",".",".",".","_",".",".",".",".",".",".","_",".",".","_","."],[".",".",".",".",".",".",".",".","_",".",".",".",".",".",".",".",".",".",".",".",".",".","_",".","_",".",".",".",".",".","_",".",".",".",".",".",".","_",".",".","_","."],[7,5,".",".",".",".",".",".","_",".",".",".",0,2,3,3,3,3,3,3,3,3,"_",".","_",".",".",".",10,8,"_",".",8,"h",10,8,7,"_",7,8,"_",10],[".",".",5,3,".",".",".",".","_",".",".",".",".",".",".",".",".",".",".",".",".",".","_",3,"_",3,"/",10,".",".","_",10,".",".",".",".",".","_",".",".","_","."],[".",".",".",".",3,5,5,5,"_",5,3,3,".",".",".",".",".",".",".",".",".",".","_",".","_",".",".",".",".",".","_",".",".",".",".",".",".","_",".",".","_","."]],[[".","_",".",".",".",".",".","_",".",".",".",".",".",".","_",".",".",".",".",".","_",".","_","."],[".","_",".",".",".",".",".","_",".",".",".",".",".",".","_",".",".",".",".",".","_",".","_","."],[".","_",".",".",".",10,8,"_",".",8,"h",10,8,7,"_",7,"h",8,7,6,"_",5,"_","."],[3,"_",3,"/",10,".",".","_",10,".",".",".",".",".","_",".",".",".",".",".","_",".","_",3],[".","_",".",".",".",".",".","_",".",".",".",".",".",".","_",".",".",".",".",".","_",".","_","."]]],"numberofstrings":5,"notes":["G","D","A","E","B"],"capo":0,"stringnotes":["G2","D2","A1","E1","B0"],"comments":["Stave 1:","Stave 2:","Stave 3:","Stave 4:","Stave 5:","Stave 6:","Stave 7:","Stave 8:","Stave 9:","Stave 10:","Stave 11:","Stave 12:","Stave 13:","Stave 14:","Stave 15:","Stave 16:","Stave 17:","Stave 18:","Stave 19:","Stave 20:","Stave 21:","Stave 22:","Stave 23:","Stave 24:","Stave 25:"],"timing":[["W",null,"W","W",null,"W",null,"W","W",null,"W","W",null,"W","W","W",null,"W","W",null,"W",null,"W"],["W",null,"W","W",null,"W","W",null,"W","W",null,"W",null,"W","W","W",null,"W",null,"W","W","W","W",null,"W",null,"W","W","W","W"],["W","W","W",null,"W","W","W","W","W",null,"W","W","W","W",null,"W","W","W","W","W",null,"W","W","W"],["W","W","W","W","W","W","W","W","W","W","W","W","W","W","W","W","W","W","W","W","W","W","W","W","W","W","W","W","W","W","W","W"],["W","W","W","W","W","W","W","W","W","W","W","W","W","W","W","W","W","W","W","W","W","W","W","W","W","W","W","W","W","W","W","W"],["W","W","W","W","W","W","W","W","W","W","W","W","W","W","W","W","W",null,"W","W","W","W","W","W","W","W","W","W","W","W",null,"W"],["W","W","W","W","W","W","W","W","W","W","W","W","W","W","W",null,"W",null,"W","W","W",null,"W","W","W","W","W","W","W","W","W","W","W","W"],["W","W","W","W",null,"W","W",null,"W","W",null,"W",null,"W",null,"W","W","W","W","W","W","W","W","W","W",null,"W","W","W","W","W","W",null,"W","W","W"],["W","W","W","W","W",null,"W","W","W","W",null,"W","W","W","W","W",null,"W","W","W",null,"W",null,"W","W","W","W","W","W","W","W",null,"W","W"],["W","W","W","W","W","W","W","W","W","W","W","W","W","W","W","W","W","W","W","W","W","W","W","W","W","W","W","W","W","W","W","W"],["W","W","W","W","W","W","W","W","W","W","W","W","W","W","W",null,"W","W","W","W","W","W","W","W","W","W","W","W","W","W","W","W",null,"W"],["W","W","W","W","W","W","W","W",null,"W","W","W","W","W","W",null,"W","W",null,"W","W","W","W","W","W","W","W","W","W","W","W"],["W","W","W","W","W","W","W","W",null,"W","W","W","W","W","W","W","W",null,"W","W","W","W","W","W","W","W","W","W","W","W","W","W","W"],["W","W","W","W","W","W","W","W","W","W","W","W","W","W","W","W","W","W","W","W","W","W","W","W","W","W","W","W","W","W","W","W","W","W","W","W","W","W","W","W","W"],["W",null,"W","W","W","W","W","W","W","W","W","W","W","W","W","W","W","W","W","W","W","W","W","W","W","W",null,"W","W","W","W",null,"W","W","W","W","W","W","W",null,"W","W"],["W","W",null,"W","W","W","W","W","W","W","W","W","W","W",null,"W",null,"W","W","W","W","W","W","W","W","W","W",null,"W","W",null,"W"],["W",null,"W",null,"W","W","W",null,"W","W",null,"W","W","W",null,"W",null,"W","W","W",null,"W",null,"W"],["W","W","W",null,"W",null,"W","W","W","W",null,"W",null,"W","W","W","W",null,"W","W","W","W","W","W","W","W",null,"W","W","W",null,"W","W","W",null,"W","W","W","W","W","W","W","W"],["W","W","W","W","W","W","W","W","W","W","W","W","W","W","W","W","W","W","W","W","W","W","W","W","W","W","W","W","W","W","W","W","W","W","W","W",null,"W","W","W","W","W","W","W","W","W","W","W"],["W","W","W","W","W","W","W","W","W","W","W","W","W","W","W","W","W","W","W","W","W","W","W","W","W","W","W",null,"W","W","W","W","W","W","W","W"],["W","W","W","W","W","W","W",null,"W","W","W","W",null,"W","W","W","W","W","W","W","W","W","W","W","W","W","W","W","W","W","W","W","W",null,"W","W","W","W","W","W","W","W"],["W","W","W","W","W","W","W","W","W","W","W","W","W","W","W",null,"W","W","W","W","W","W","W","W","W","W","W","W","W","W","W","W","W","W","W","W","W","W","W"],["W","W","W","W","W","W","W","W","W","W","W","W","W","W","W",null,"W","W","W","W","W","W","W","W","W","W","W","W","W","W","W","W","W","W","W","W","W","W","W","W","W"],["W","W","W","W","W","W","W","W",null,"W","W","W","W","W","W","W","W","W","W","W","W","W","W","W","W","W","W","W","W","W",null,"W","W",null,"W","W","W",null,"W","W",null,"W"],["W",null,"W",null,"W","W","W",null,"W","W",null,"W","W","W",null,"W",null,"W","W","W",null,"W",null,"W"]],"timingvisible":false,"tabcounter":24,"stave":24,"totalstaves":25,"instrument":"5bass","selectedtuning":"5bass","version":"13"}

Member for

1 year 4 months
Submitted by Geniii on Tue, 2020-06-16 23:47