The You Said Goodnight Bass Tab (By Genesis)

Chords

01234567891011121314151617181920212223
E
B
G
D
A
E
B
0 1 2 3 4 5 6 7 8 9 10 11 12 13 14 15 16 17 18 19 20 21 22 23
(/) Slide Up  (\) Slide Down  (h) Hammer On  (p) Pull Off  (b) Bend (r) Release (v) Vibrato

Stave 1:

G|----------------------------------6--------------------
D|-------------------------------6-----------------------
A|--------------0--0--------2/4--------4--2--------0/12--
E|--0--0-------------------------------------------------

Stave 2:

G|----------------------------------6------------------------
D|-----------4-------------------6--------------------7/9\7--
A|-----------------0--0-----2/4--------4--2-----0--7---------
E|--0--0-----------------------------------------------------

Stave 3:

G|-------------------------------------------------------------------
D|-------------------------------------------------------------------
A|--4-----6--7--6-------------------------------------2--2--------2--
E|-----4-----------7--5--5--5--7-----2--2--2-----2/4-----------2-----

Stave 4:

G|------------------------------------------------------
D|--------------------------7/9\7-----------------------
A|--4-----6--7--6--------7------------------------------
E|-----4-----------7--5---------------5--7-----2--2--2--

Stave 5:

G|-------------------------------
D|-------------------------------
A|-------2--2--2--2--2--2--2--2--
E|--2h4--------------------------

Stave 6:

G|-------------------------------------------------------------------------
D|------------------------------------------------------------7-----7/9\7--
A|----------------------2--2-----2-------------------------7-----7---------
E|--0--0-----0-----2h4-----------------2--2--2-----2h4--5------------------

Stave 7:

G|--------------------------------------------------
D|-----6h7--6---------------------------------------
A|--7----------7---------------------------2--2--2--
E|----------------5h7-----0--0--0-----2h4-----------

Stave 8:

G|-------------------------16-----------------------------
D|---------------------14---------------------4-----------
A|-----------------12-------------------------------0--0--
E|--2--2--2--4-----------------------0--0-----------------

Stave 9:

G|----------------------------------6----------------------
D|-----------4-------------------6------------------7/9\7--
A|-----------------0--0-----2/4--------4\2-----0/7---------
E|--0--0---------------------------------------------------

Stave 10:

G|-------------------------------6----------------
D|-----------4----------------6-------------------
A|--------------0--0-----2/4--------4\2-----0/12--
E|--0--0------------------------------------------

Stave 11:

G|----------------------------------------------------------4/6\4--------
D|-------------------------------------------------------4---------4-----
A|--4-----6--7--6-------------------------------------2---------------2--
E|-----4-----------7--5--5--5-----7-----2--2--2--2h4---------------------

Stave 12:

G|-----------------------------------------------------
D|--------------------------7/9\7----------------------
A|--4-----6--7--6--------7-----------------------------
E|-----4-----------7--5---------------5h7-----2--2--2--

Stave 13:

G|------------------------------------------
D|------------------------------------------
A|-------2--2--2--2--0--0--0--0--0--0--0h2--
E|--2h4-------------------------------------

Stave 14:

G|-----------------------------------------------------------------------------------------
D|---------------------------------------------------------7-----7/9\7-----6h7--6----------
A|-------------------2--2-----2-----2-------------------7-----7---------7----------7-------
E|--0--0--0-----2h4--------2-----------2--2--2--2/4--5--------------------------------5h7--

Stave 15:

G|------------------------------------------------------------------------------
D|------------------------------------------------------------------------------
A|-------------------2--2-----2-----2-------------------------------------------
E|--0--0--0-----2h4--------2-----------2--2--2--2/4--5--5--5--5/15--15--15--15--

Stave 16:

G|-----------------------------------------------------------------------------
D|--------------------------------------------------7--7--7--6--6--6--4--4--4--
A|--4--4-----4--4-----2--2-----2--2-----0--0--0--------------------------------
E|--------4-----------------2--------------------------------------------------

Stave 17:

G|--------------------------------------------------------------------------------
D|--------------------------------------------------------------------------------
A|--7--7--7--6h7--6--------4--4-----4--4-----2--2-----2--2--------------------14--
E|-------------------7-----------4-----------------2-----------2--2--2------------

Stave 18:

G|-----------4------------------------------------------------------------------
D|--4--------------4------------------------------------------------------------
A|---------------------------------------------------2--2-----2--2--------------
E|--------------------------0/12\0-----0--0--0--2h4--------2-----------2--2--2--

Stave 19:

G|------------------------8h9--8---------------------------------------------
D|-------------7-----7/9----------9--6h7--6----------------------------------
A|----------7-----7--------------------------7----------------------2--2--2--
E|--2/4--5-----------------------------------------0--0--0-----2h4-----------

Stave 20:

G|--------------------------------------------------------------
D|--------------------------------------------------------------
A|--2-----------------------------------------------------------
E|-----2--2--2--2/4--5--5--5--5/17--17--17--17--17--17--17--17--

Stave 21:

G|---------------------------------------------------16--
D|-----------------------------------------------14------
A|-------------------2--2--2-----------------12----------
E|--0--0--0-----2h4--------------2-----4-----------------

							http://www.guitartabcreator.com
Instruments
{"title":"The You Said Goodnight Bass Tab (By Genesis)","strings":[[[".",".","_","_",".",".","_","_",".",".",".",".",6,".",".","_","_",".",".","."],[".",".","_","_",".",".","_","_",".",".",".",6,".",".",".","_","_",".",".","."],[".",".","_","_",0,0,"_","_",2,"/",4,".",".",4,2,"_","_",0,"/",12],[0,0,"_","_",".",".","_","_",".",".",".",".",".",".",".","_","_",".",".","."]],[[".",".","_",".","_",".",".","_",".",".",".",".",6,".",".","_",".",".",".",".",".",".","."],[".",".","_",4,"_",".",".","_",".",".",".",6,".",".",".","_",".",".",7,"/",9,"\\",7],[".",".","_",".","_",0,0,"_",2,"/",4,".",".",4,2,"_",0,7,".",".",".",".","."],[0,0,"_",".","_",".",".","_",".",".",".",".",".",".",".","_",".",".",".",".",".",".","."]],[[".",".",".",".",".",".",".",".",".",".","_",".",".",".","_",".",".",".",".",".","_",".","."],[".",".",".",".",".",".",".",".",".",".","_",".",".",".","_",".",".",".",".",".","_",".","."],[4,".",6,7,6,".",".",".",".",".","_",".",".",".","_",".",".",".",2,2,"_",".",2],[".",4,".",".",".",7,5,5,5,7,"_",2,2,2,"_",2,"/",4,".",".","_",2,"."]],[[".",".",".",".",".",".",".",".",".",".",".",".",".","_",".",".","_",".",".","."],[".",".",".",".",".",".",".",".",7,"/",9,"\\",7,"_",".",".","_",".",".","."],[4,".",6,7,6,".",".",7,".",".",".",".",".","_",".",".","_",".",".","."],[".",4,".",".",".",7,5,".",".",".",".",".",".","_",5,7,"_",2,2,2]],[[".",".",".",".",".",".",".",".",".",".","."],[".",".",".",".",".",".",".",".",".",".","."],[".",".",".",2,2,2,2,2,2,2,2],[2,"h",4,".",".",".",".",".",".",".","."]],[[".",".","_",".","_",".",".",".",".",".","_",".","_",".",".",".","_",".",".",".",".",".",".",".",".",".",".",".","."],[".",".","_",".","_",".",".",".",".",".","_",".","_",".",".",".","_",".",".",".",".",".",7,".",7,"/",9,"\\",7],[".",".","_",".","_",".",".",".",2,2,"_",2,"_",".",".",".","_",".",".",".",".",7,".",7,".",".",".",".","."],[0,0,"_",0,"_",2,"h",4,".",".","_",".","_",2,2,2,"_",2,"h",4,5,".",".",".",".",".",".",".","."]],[[".",".",".",".",".",".",".",".",".","_",".",".",".","_",".",".",".",".",".","."],[".",6,"h",7,6,".",".",".",".","_",".",".",".","_",".",".",".",".",".","."],[7,".",".",".",".",7,".",".",".","_",".",".",".","_",".",".",".",2,2,2],[".",".",".",".",".",".",5,"h",7,"_",0,0,0,"_",2,"h",4,".",".","."]],[[".",".",".",".","_",".",".",16,"_","_",".",".","_",".","_",".","."],[".",".",".",".","_",".",14,".","_","_",".",".","_",4,"_",".","."],[".",".",".",".","_",12,".",".","_","_",".",".","_",".","_",0,0],[2,2,2,4,"_",".",".",".","_","_",0,0,"_",".","_",".","."]],[[".",".","_",".","_",".",".","_",".",".",".",".",6,".",".",".","_",".",".",".",".",".",".",".","."],[".",".","_",4,"_",".",".","_",".",".",".",6,".",".",".",".","_",".",".",".",7,"/",9,"\\",7],[".",".","_",".","_",0,0,"_",2,"/",4,".",".",4,"\\",2,"_",0,"/",7,".",".",".",".","."],[0,0,"_",".","_",".",".","_",".",".",".",".",".",".",".",".","_",".",".",".",".",".",".",".","."]],[[".",".","_",".",".",".","_",".",".",".",".",6,".",".",".","_",".",".","."],[".",".","_",4,".",".","_",".",".",".",6,".",".",".",".","_",".",".","."],[".",".","_",".",0,0,"_",2,"/",4,".",".",4,"\\",2,"_",0,"/",12],[0,0,"_",".",".",".","_",".",".",".",".",".",".",".",".","_",".",".","."]],[[".",".",".",".",".",".",".",".",".","_",".","_",".",".",".",".",".",".",".",".",4,"/",6,"\\",4,".","."],[".",".",".",".",".",".",".",".",".","_",".","_",".",".",".",".",".",".",".",4,".",".",".",".",".",4,"."],[4,".",6,7,6,".",".",".",".","_",".","_",".",".",".",".",".",".",2,".",".",".",".",".",".",".",2],[".",4,".",".",".",7,5,5,5,"_",7,"_",2,2,2,2,"h",4,".",".",".",".",".",".",".",".","."]],[[".",".",".",".",".",".",".",".",".",".",".",".",".","_",".",".",".","_",".",".","."],[".",".",".",".",".",".",".",".",7,"/",9,"\\",7,"_",".",".",".","_",".",".","."],[4,".",6,7,6,".",".",7,".",".",".",".",".","_",".",".",".","_",".",".","."],[".",4,".",".",".",7,5,".",".",".",".",".",".","_",5,"h",7,"_",2,2,2]],[[".",".",".",".",".",".",".",".",".",".",".",".",".",".",".","."],[".",".",".",".",".",".",".",".",".",".",".",".",".",".",".","."],[".",".",".",2,2,2,2,0,0,0,0,0,0,0,"h",2],[2,"h",4,".",".",".",".",".",".",".",".",".",".",".",".","."]],[[".",".",".","_",".",".",".",".",".",".",".","_",".",".",".",".",".",".",".",".",".",".",".",".",".",".",".",".",".",".",".",".",".",".",".",".","."],[".",".",".","_",".",".",".",".",".",".",".","_",".",".",".",".",".",".",".",".",".",7,".",7,"/",9,"\\",7,".",6,"h",7,6,".",".",".","."],[".",".",".","_",".",".",".",2,2,".",2,"_",2,".",".",".",".",".",".",".",7,".",7,".",".",".",".",".",7,".",".",".",".",7,".",".","."],[0,0,0,"_",2,"h",4,".",".",2,".","_",".",2,2,2,2,"/",4,5,".",".",".",".",".",".",".",".",".",".",".",".",".",".",5,"h",7]],[[".",".",".","_",".",".",".",".",".",".",".","_",".",".",".",".",".",".",".",".",".",".",".",".",".",".",".","."],[".",".",".","_",".",".",".",".",".",".",".","_",".",".",".",".",".",".",".",".",".",".",".",".",".",".",".","."],[".",".",".","_",".",".",".",2,2,".",2,"_",2,".",".",".",".",".",".",".",".",".",".",".",".",".",".","."],[0,0,0,"_",2,"h",4,".",".",2,".","_",".",2,2,2,2,"/",4,5,5,5,5,"/",15,15,15,15]],[[".",".",".",".",".","_",".",".",".",".",".","_",".",".",".","_",".",".",".",".",".",".",".",".","."],[".",".",".",".",".","_",".",".",".",".",".","_",".",".",".","_",7,7,7,6,6,6,4,4,4],[4,4,".",4,4,"_",2,2,".",2,2,"_",0,0,0,"_",".",".",".",".",".",".",".",".","."],[".",".",4,".",".","_",".",".",2,".",".","_",".",".",".","_",".",".",".",".",".",".",".",".","."]],[[".",".",".",".",".",".",".",".","_",".",".",".",".",".","_",".",".",".",".",".","_",".",".",".","_","_","."],[".",".",".",".",".",".",".",".","_",".",".",".",".",".","_",".",".",".",".",".","_",".",".",".","_","_","."],[7,7,7,6,"h",7,6,".","_",4,4,".",4,4,"_",2,2,".",2,2,"_",".",".",".","_","_",14],[".",".",".",".",".",".",".",7,"_",".",".",4,".",".","_",".",".",2,".",".","_",2,2,2,"_","_","."]],[[".","_","_",4,"_",".","_","_",".",".",".",".",".","_",".",".",".",".",".",".",".",".",".",".",".","_",".",".","."],[4,"_","_",".","_",4,"_","_",".",".",".",".",".","_",".",".",".",".",".",".",".",".",".",".",".","_",".",".","."],[".","_","_",".","_",".","_","_",".",".",".",".",".","_",".",".",".",".",".",".",2,2,".",2,2,"_",".",".","."],[".","_","_",".","_",".","_","_",0,"/",12,"\\",0,"_",0,0,0,2,"h",4,".",".",2,".",".","_",2,2,2]],[[".",".",".",".",".",".",".",".",".",".",8,"h",9,8,".",".",".",".",".",".","_",".",".",".","_",".",".",".",".",".","."],[".",".",".",".",".",7,".",7,"/",9,".",".",".",".",9,6,"h",7,6,".","_",".",".",".","_",".",".",".",".",".","."],[".",".",".",".",7,".",7,".",".",".",".",".",".",".",".",".",".",".",".",7,"_",".",".",".","_",".",".",".",2,2,2],[2,"/",4,5,".",".",".",".",".",".",".",".",".",".",".",".",".",".",".",".","_",0,0,0,"_",2,"h",4,".",".","."]],[[".",".",".",".",".",".",".",".",".",".",".",".",".",".",".",".",".",".",".","."],[".",".",".",".",".",".",".",".",".",".",".",".",".",".",".",".",".",".",".","."],[2,".",".",".",".",".",".",".",".",".",".",".",".",".",".",".",".",".",".","."],[".",2,2,2,2,"/",4,5,5,5,5,"/",17,17,17,17,17,17,17,17]],[[".",".",".","_",".",".",".",".",".",".","_",".","_",".","_",".",".",16],[".",".",".","_",".",".",".",".",".",".","_",".","_",".","_",".",14,"."],[".",".",".","_",".",".",".",2,2,2,"_",".","_",".","_",12,".","."],[0,0,0,"_",2,"h",4,".",".",".","_",2,"_",4,"_",".",".","."]]],"numberofstrings":4,"notes":["G","D","A","E"],"capo":0,"stringnotes":["G2","D2","A1","E1"],"comments":["Stave 1:","Stave 2:","Stave 3:","Stave 4:","Stave 5:","Stave 6:","Stave 7:","Stave 8:","Stave 9:","Stave 10:","Stave 11:","Stave 12:","Stave 13:","Stave 14:","Stave 15:","Stave 16:","Stave 17:","Stave 18:","Stave 19:","Stave 20:","Stave 21:"],"timing":[["W","W",null,"W","W","W",null,null,"W",null,"W","W","W","W","W",null,"W","W",null,"W"],["W","W",null,"W","W","W","W",null,"W",null,"W","W","W","W","W",null,"W","W","W",null,"W",null,"W"],["W","W","W","W","W","W","W","W","W","W",null,"W","W","W",null,"W",null,"W","W","W","W","W","W"],["W","W","W","W","W","W","W","W","W",null,"W",null,"W",null,"W","W",null,"W","W","W"],["W",null,"W","W","W","W","W","W","W","W","W","W","W","W","W"],["W","W",null,"W",null,"W","W","W","W","W",null,"W",null,"W","W","W",null,"W",null,"W","W","W","W","W","W",null,"W",null,"W"],["W","W",null,"W","W","W","W",null,"W",null,"W","W","W",null,"W",null,"W","W","W","W"],["W","W","W","W",null,"W","W","W",null,null,"W","W",null,"W",null,"W","W"],["W","W",null,"W",null,"W","W",null,"W",null,"W","W","W","W",null,"W",null,"W",null,"W","W",null,"W",null,"W"],["W","W",null,"W","W","W",null,"W",null,"W","W","W","W",null,"W",null,"W",null,"W"],["W","W","W","W","W","W","W","W","W",null,"W",null,"W","W","W","W",null,"W","W","W","W",null,"W",null,"W","W","W"],["W","W","W","W","W","W","W","W","W",null,"W",null,"W",null,"W",null,"W",null,"W","W","W"],["W",null,"W","W","W","W","W","W","W","W","W","W","W","W",null,"W"],["W","W","W",null,"W",null,"W","W","W","W","W",null,"W","W","W","W","W",null,"W","W","W","W","W","W",null,"W",null,"W","W","W",null,"W","W","W","W",null,"W"],["W","W","W",null,"W",null,"W","W","W","W","W",null,"W","W","W","W","W",null,"W","W","W","W","W",null,"W","W","W","W"],["W","W","W","W","W",null,"W","W","W","W","W",null,"W","W","W",null,"W","W","W","W","W","W","W","W","W"],["W","W","W","W",null,"W","W","W",null,"W","W","W","W","W",null,"W","W","W","W","W",null,"W","W","W",null,null,"W"],["W",null,null,"W",null,"W",null,null,"W",null,"W",null,"W",null,"W","W","W","W",null,"W","W","W","W","W","W",null,"W","W","W"],["W",null,"W","W","W","W","W","W",null,"W","W",null,"W","W","W","W",null,"W","W","W",null,"W","W","W",null,"W",null,"W","W","W","W"],["W","W","W","W","W",null,"W","W","W","W","W",null,"W","W","W","W","W","W","W","W"],["W","W","W",null,"W",null,"W","W","W","W",null,"W",null,"W",null,"W","W","W"]],"timingvisible":false,"tabcounter":18,"stave":20,"totalstaves":21,"instrument":"4bass","selectedtuning":"4bass_standard","version":"13"}

Member for

1 year 5 months
Submitted by Geniii on Thu, 2020-04-16 03:23