Ulap - Rob deniel (Tabs by Genesis)

Chords

01234567891011121314151617181920212223
E
B
G
D
A
E
B
0 1 2 3 4 5 6 7 8 9 10 11 12 13 14 15 16 17 18 19 20 21 22 23
(/) Slide Up  (\) Slide Down  (h) Hammer On  (p) Pull Off  (b) Bend (r) Release (v) Vibrato

Stave 1:

E|---------------
B|-------5---5-4-
G|-----6---6-6---
D|---7-------7-7-
A|---------------
E|-7---------7-7-

Stave 2:

E|-----------------------------------------
B|---------------------------------9h10-12-
G|------9-11-11b12----9-11-9---------------
D|-9/11------------------------------------
A|-----------------------------------------
E|-----------------------------------------

Stave 3:

E|-------------------------------------------------
B|-------------------------------------------------
G|------9-11-11-11b12----9h11---------------9------
D|-9/11--------------------------------9/11---11-9-
A|-------------------------------------------------
E|-------------------------------------------------

Stave 4:

E|----------------------------------------
B|-9-11-----------------------------------
G|-9-11-9------------9-11-11b12----9-11-9-
D|--------------9/11----------------------
A|----------------------------------------
E|----------------------------------------

Stave 5:

E|---------------------------------------------------------
B|---------------------------------------------------------
G|-11b12----9-11-9---------------------------9-11----11b13-
D|-----------------9-9h11-9-------9-9-9-9h11---------------
A|---------------------------------------------------------
E|---------------------------------------------------------

Stave 6:

E|----14-------------14-------------14-------------14-------------14-------------14-------------14-------------14-------
B|-------14-12----------14-12----------14-12----------14-12----------14-12----------14-12----------14-12----------14-12-
G|-13-------------13-------------13-------------13-------------13-------------13-------------13-------------13----------
D|----------------------------------------------------------------------------------------------------------------------
A|----------------------------------------------------------------------------------------------------------------------
E|----------------------------------------------------------------------------------------------------------------------

Stave 7:

E|----------------------14-------------14-------------14-------------14-------------14-------------14-------
B|----12-14-12-------------14-12----------14-12----------14-12----------14-12----------14-12----------14-12-
G|-13----------13----13-------------13-------------13-------------13-------------13-------------13----------
D|----------------------------------------------------------------------------------------------------------
A|----------------------------------------------------------------------------------------------------------
E|----------------------------------------------------------------------------------------------------------

Stave 8:

E|-------------------14-------------14-------------------
B|----12-14-12----------14-12----------14-12----12-12----
G|-13-------------13-------------13----------13----------
D|-------------------------------------------------------
A|-------------------------------------------------------
E|-------------------------------------------------------

Stave 9:

E|----14-------------14----------------------14-------------14----------------
B|-------14-12----------14-12----12-12----------14-12----------14-12----12-14-
G|-13-------------13----------13----------13-------------13----------13-------
D|----------------------------------------------------------------------------
A|----------------------------------------------------------------------------
E|----------------------------------------------------------------------------

Stave 10:

E|----14-------------14----------------------14-------------14----------------------
B|-------14-12----------14-12----12-14----------14-12----------14-12----12-14-12----
G|-13-------------13----------13----------13-------------13----------13----------13-
D|----------------------------------------------------------------------------------
A|----------------------------------------------------------------------------------
E|----------------------------------------------------------------------------------

Stave 11:

E|----14-------------14----------------------14-------------14----------------
B|-------14-12----------14-12----12-12----------14-12----------14-12----12-14-
G|-13-------------13----------13----------13-------------13----------13-------
D|----------------------------------------------------------------------------
A|----------------------------------------------------------------------------
E|----------------------------------------------------------------------------

Stave 12:

E|----14-------------14----------------------------14-------------14----------------
B|-------14-12----------14-12----12-14-12-------------14-12----------14-12----12-12-
G|-13-------------13----------13----------13----13-------------13----------13-------
D|----------------------------------------------------------------------------------
A|----------------------------------------------------------------------------------
E|----------------------------------------------------------------------------------

Stave 13:

E|----14-------------14----------------------14-------------14----------------
B|-------14-12----------14-12----12-12----------14-12----------14-12----12-14-
G|-13-------------13----------13----------13-------------13----------13-------
D|----------------------------------------------------------------------------
A|----------------------------------------------------------------------------
E|----------------------------------------------------------------------------

Stave 14:

E|----14-------------14----------------------14-------------14----------------------
B|-------14-12----------14-12----12-14----------14-12----------14-12----12-14-12----
G|-13-------------13----------13----------13-------------13----------13----------13-
D|----------------------------------------------------------------------------------
A|----------------------------------------------------------------------------------
E|----------------------------------------------------------------------------------

Stave 15:

E|----14-------------14-------------------14-------------14----------------
B|-------14-12----------14-12----12----------14-12----------14-12----12-14-
G|-13-------------13----------13-------13-------------13----------13-------
D|-------------------------------------------------------------------------
A|-------------------------------------------------------------------------
E|-------------------------------------------------------------------------

Stave 16:

E|----14-------------14-------------------------14-------------14----------------
B|-------14-12----------14-12----12-14-12----------14-12----------14-12----12-12-
G|-13-------------13----------13-------------13-------------13----------13-------
D|-------------------------------------------------------------------------------
A|-------------------------------------------------------------------------------
E|-------------------------------------------------------------------------------

							http://www.guitartabcreator.com
Instruments
{"strings":[[[".",".",".",".",".",".","."],[".",".",".",5,".",5,4],[".",".",6,".",6,6,"."],[".",7,".",".",".",7,7],[".",".",".",".",".",".","."],[7,".",".",".",".",7,7]],[[".",".",".",".",".",".",".",".","_",".",".",".","_","_",".",".",".","."],[".",".",".",".",".",".",".",".","_",".",".",".","_","_",9,"h",10,12],[".",".",".",9,11,11,"b",12,"_",9,11,9,"_","_",".",".",".","."],[9,"/",11,".",".",".",".",".","_",".",".",".","_","_",".",".",".","."],[".",".",".",".",".",".",".",".","_",".",".",".","_","_",".",".",".","."],[".",".",".",".",".",".",".",".","_",".",".",".","_","_",".",".",".","."]],[[".",".",".",".",".",".",".",".",".","_",".",".",".","_","_","_",".",".",".",".",".","."],[".",".",".",".",".",".",".",".",".","_",".",".",".","_","_","_",".",".",".",".",".","."],[".",".",".",9,11,11,11,"b",12,"_",9,"h",11,"_","_","_",".",".",".",9,".","."],[9,"/",11,".",".",".",".",".",".","_",".",".",".","_","_","_",9,"/",11,".",11,9],[".",".",".",".",".",".",".",".",".","_",".",".",".","_","_","_",".",".",".",".",".","."],[".",".",".",".",".",".",".",".",".","_",".",".",".","_","_","_",".",".",".",".",".","."]],[[".",".",".","_","_",".",".",".",".",".",".",".",".","_",".",".","."],[9,11,".","_","_",".",".",".",".",".",".",".",".","_",".",".","."],[9,11,9,"_","_",".",".",".",9,11,11,"b",12,"_",9,11,9],[".",".",".","_","_",9,"/",11,".",".",".",".",".","_",".",".","."],[".",".",".","_","_",".",".",".",".",".",".",".",".","_",".",".","."],[".",".",".","_","_",".",".",".",".",".",".",".",".","_",".",".","."]],[[".",".",".","_",".",".",".",".",".",".",".",".","_","_",".",".",".",".",".",".",".",".","_",".",".","."],[".",".",".","_",".",".",".",".",".",".",".",".","_","_",".",".",".",".",".",".",".",".","_",".",".","."],[11,"b",12,"_",9,11,9,".",".",".",".",".","_","_",".",".",".",".",".",".",9,11,"_",11,"b",13],[".",".",".","_",".",".",".",9,9,"h",11,9,"_","_",9,9,9,9,"h",11,".",".","_",".",".","."],[".",".",".","_",".",".",".",".",".",".",".",".","_","_",".",".",".",".",".",".",".",".","_",".",".","."],[".",".",".","_",".",".",".",".",".",".",".",".","_","_",".",".",".",".",".",".",".",".","_",".",".","."]],[[".",14,".",".","_",".",14,".",".","_",".",14,".",".","_",".",14,".",".","_",".",14,".",".","_",".",14,".",".","_",".",14,".",".","_",".",14,".","."],[".",".",14,12,"_",".",".",14,12,"_",".",".",14,12,"_",".",".",14,12,"_",".",".",14,12,"_",".",".",14,12,"_",".",".",14,12,"_",".",".",14,12],[13,".",".",".","_",13,".",".",".","_",13,".",".",".","_",13,".",".",".","_",13,".",".",".","_",13,".",".",".","_",13,".",".",".","_",13,".",".","."],[".",".",".",".","_",".",".",".",".","_",".",".",".",".","_",".",".",".",".","_",".",".",".",".","_",".",".",".",".","_",".",".",".",".","_",".",".",".","."],[".",".",".",".","_",".",".",".",".","_",".",".",".",".","_",".",".",".",".","_",".",".",".",".","_",".",".",".",".","_",".",".",".",".","_",".",".",".","."],[".",".",".",".","_",".",".",".",".","_",".",".",".",".","_",".",".",".",".","_",".",".",".",".","_",".",".",".",".","_",".",".",".",".","_",".",".",".","."]],[[".",".",".",".",".","_",".",14,".",".","_",".",14,".",".","_",".",14,".",".","_",".",14,".",".","_",".",14,".",".","_",".",14,".","."],[".",12,14,12,".","_",".",".",14,12,"_",".",".",14,12,"_",".",".",14,12,"_",".",".",14,12,"_",".",".",14,12,"_",".",".",14,12],[13,".",".",".",13,"_",13,".",".",".","_",13,".",".",".","_",13,".",".",".","_",13,".",".",".","_",13,".",".",".","_",13,".",".","."],[".",".",".",".",".","_",".",".",".",".","_",".",".",".",".","_",".",".",".",".","_",".",".",".",".","_",".",".",".",".","_",".",".",".","."],[".",".",".",".",".","_",".",".",".",".","_",".",".",".",".","_",".",".",".",".","_",".",".",".",".","_",".",".",".",".","_",".",".",".","."],[".",".",".",".",".","_",".",".",".",".","_",".",".",".",".","_",".",".",".",".","_",".",".",".",".","_",".",".",".",".","_",".",".",".","."]],[[".",".",".",".","_",".",14,".",".","_",".",14,".",".",".",".",".","_"],[".",12,14,12,"_",".",".",14,12,"_",".",".",14,12,".",12,12,"_"],[13,".",".",".","_",13,".",".",".","_",13,".",".",".",13,".",".","_"],[".",".",".",".","_",".",".",".",".","_",".",".",".",".",".",".",".","_"],[".",".",".",".","_",".",".",".",".","_",".",".",".",".",".",".",".","_"],[".",".",".",".","_",".",".",".",".","_",".",".",".",".",".",".",".","_"]],[[".",14,".",".","_",".",14,".",".",".",".",".","_",".",14,".",".","_",".",14,".",".",".",".","."],[".",".",14,12,"_",".",".",14,12,".",12,12,"_",".",".",14,12,"_",".",".",14,12,".",12,14],[13,".",".",".","_",13,".",".",".",13,".",".","_",13,".",".",".","_",13,".",".",".",13,".","."],[".",".",".",".","_",".",".",".",".",".",".",".","_",".",".",".",".","_",".",".",".",".",".",".","."],[".",".",".",".","_",".",".",".",".",".",".",".","_",".",".",".",".","_",".",".",".",".",".",".","."],[".",".",".",".","_",".",".",".",".",".",".",".","_",".",".",".",".","_",".",".",".",".",".",".","."]],[[".",14,".",".","_",".",14,".",".",".",".",".","_",".",14,".",".","_",".",14,".",".",".",".",".",".","."],[".",".",14,12,"_",".",".",14,12,".",12,14,"_",".",".",14,12,"_",".",".",14,12,".",12,14,12,"."],[13,".",".",".","_",13,".",".",".",13,".",".","_",13,".",".",".","_",13,".",".",".",13,".",".",".",13],[".",".",".",".","_",".",".",".",".",".",".",".","_",".",".",".",".","_",".",".",".",".",".",".",".",".","."],[".",".",".",".","_",".",".",".",".",".",".",".","_",".",".",".",".","_",".",".",".",".",".",".",".",".","."],[".",".",".",".","_",".",".",".",".",".",".",".","_",".",".",".",".","_",".",".",".",".",".",".",".",".","."]],[[".",14,".",".","_",".",14,".",".",".",".",".","_",".",14,".",".","_",".",14,".",".",".",".","."],[".",".",14,12,"_",".",".",14,12,".",12,12,"_",".",".",14,12,"_",".",".",14,12,".",12,14],[13,".",".",".","_",13,".",".",".",13,".",".","_",13,".",".",".","_",13,".",".",".",13,".","."],[".",".",".",".","_",".",".",".",".",".",".",".","_",".",".",".",".","_",".",".",".",".",".",".","."],[".",".",".",".","_",".",".",".",".",".",".",".","_",".",".",".",".","_",".",".",".",".",".",".","."],[".",".",".",".","_",".",".",".",".",".",".",".","_",".",".",".",".","_",".",".",".",".",".",".","."]],[[".",14,".",".","_",".",14,".",".",".",".",".",".",".","_",".",14,".",".","_",".",14,".",".",".",".","."],[".",".",14,12,"_",".",".",14,12,".",12,14,12,".","_",".",".",14,12,"_",".",".",14,12,".",12,12],[13,".",".",".","_",13,".",".",".",13,".",".",".",13,"_",13,".",".",".","_",13,".",".",".",13,".","."],[".",".",".",".","_",".",".",".",".",".",".",".",".",".","_",".",".",".",".","_",".",".",".",".",".",".","."],[".",".",".",".","_",".",".",".",".",".",".",".",".",".","_",".",".",".",".","_",".",".",".",".",".",".","."],[".",".",".",".","_",".",".",".",".",".",".",".",".",".","_",".",".",".",".","_",".",".",".",".",".",".","."]],[[".",14,".",".","_",".",14,".",".",".",".",".","_",".",14,".",".","_",".",14,".",".",".",".","."],[".",".",14,12,"_",".",".",14,12,".",12,12,"_",".",".",14,12,"_",".",".",14,12,".",12,14],[13,".",".",".","_",13,".",".",".",13,".",".","_",13,".",".",".","_",13,".",".",".",13,".","."],[".",".",".",".","_",".",".",".",".",".",".",".","_",".",".",".",".","_",".",".",".",".",".",".","."],[".",".",".",".","_",".",".",".",".",".",".",".","_",".",".",".",".","_",".",".",".",".",".",".","."],[".",".",".",".","_",".",".",".",".",".",".",".","_",".",".",".",".","_",".",".",".",".",".",".","."]],[[".",14,".",".","_",".",14,".",".",".",".",".","_",".",14,".",".","_",".",14,".",".",".",".",".",".","."],[".",".",14,12,"_",".",".",14,12,".",12,14,"_",".",".",14,12,"_",".",".",14,12,".",12,14,12,"."],[13,".",".",".","_",13,".",".",".",13,".",".","_",13,".",".",".","_",13,".",".",".",13,".",".",".",13],[".",".",".",".","_",".",".",".",".",".",".",".","_",".",".",".",".","_",".",".",".",".",".",".",".",".","."],[".",".",".",".","_",".",".",".",".",".",".",".","_",".",".",".",".","_",".",".",".",".",".",".",".",".","."],[".",".",".",".","_",".",".",".",".",".",".",".","_",".",".",".",".","_",".",".",".",".",".",".",".",".","."]],[[".",14,".",".","_",".",14,".",".",".",".","_",".",14,".",".","_",".",14,".",".",".",".","."],[".",".",14,12,"_",".",".",14,12,".",12,"_",".",".",14,12,"_",".",".",14,12,".",12,14],[13,".",".",".","_",13,".",".",".",13,".","_",13,".",".",".","_",13,".",".",".",13,".","."],[".",".",".",".","_",".",".",".",".",".",".","_",".",".",".",".","_",".",".",".",".",".",".","."],[".",".",".",".","_",".",".",".",".",".",".","_",".",".",".",".","_",".",".",".",".",".",".","."],[".",".",".",".","_",".",".",".",".",".",".","_",".",".",".",".","_",".",".",".",".",".",".","."]],[[".",14,".",".","_",".",14,".",".",".",".",".",".","_",".",14,".",".","_",".",14,".",".",".",".","."],[".",".",14,12,"_",".",".",14,12,".",12,14,12,"_",".",".",14,12,"_",".",".",14,12,".",12,12],[13,".",".",".","_",13,".",".",".",13,".",".",".","_",13,".",".",".","_",13,".",".",".",13,".","."],[".",".",".",".","_",".",".",".",".",".",".",".",".","_",".",".",".",".","_",".",".",".",".",".",".","."],[".",".",".",".","_",".",".",".",".",".",".",".",".","_",".",".",".",".","_",".",".",".",".",".",".","."],[".",".",".",".","_",".",".",".",".",".",".",".",".","_",".",".",".",".","_",".",".",".",".",".",".","."]]],"numberofstrings":6,"notes":["E","B","G","D","A","E","B"],"capo":0,"stringnotes":["E4","B3","G3","D3","A2","E2"],"comments":["Stave 1:","Stave 2:","Stave 3:","Stave 4:","Stave 5:","Stave 6:","Stave 7:","Stave 8:","Stave 9:","Stave 10:","Stave 11:","Stave 12:","Stave 13:","Stave 14:","Stave 15:","Stave 16:"],"timing":[["W","W","W","W","W","W","W"],["W",null,"W","W","W","W",null,"W","W","W","W","W",null,null,"W","W","W","W"],["W",null,"W","W","W","W","W",null,"W",null,"W",null,"W",null,null,null,"W",null,"W","W","W","W"],["W","W","W",null,null,"W",null,"W","W","W","W",null,"W","W","W","W","W"],["W",null,"W",null,"W","W","W","W","W",null,"W","W",null,null,"W","W","W","W",null,"W","W","W",null,"W",null,"W"],["W","W","W","W",null,"W","W","W","W",null,"W","W","W","W",null,"W","W","W","W",null,"W","W","W","W",null,"W","W","W","W",null,"W","W","W","W",null,"W","W","W","W"],["W","W","W","W","W",null,"W","W","W","W",null,"W","W","W","W",null,"W","W","W","W",null,"W","W","W","W",null,"W","W","W","W",null,"W","W","W","W"],["W","W","W","W",null,"W","W","W","W",null,"W","W","W","W","W","W","W"],["W","W","W","W",null,"W","W","W","W","W","W","W",null,"W","W","W","W",null,"W","W","W","W","W","W","W"],["W","W","W","W",null,"W","W","W","W","W","W","W",null,"W","W","W","W",null,"W","W","W","W","W","W","W","W","W"],["W","W","W","W",null,"W","W","W","W","W","W","W",null,"W","W","W","W",null,"W","W","W","W","W","W","W"],["W","W","W","W",null,"W","W","W","W","W","W","W","W","W",null,"W","W","W","W",null,"W","W","W","W","W","W","W"],["W","W","W","W",null,"W","W","W","W","W","W","W",null,"W","W","W","W",null,"W","W","W","W","W","W","W"],["W","W","W","W",null,"W","W","W","W","W","W","W",null,"W","W","W","W","W","W","W","W","W","W","W","W","W","W"],["W","W","W","W",null,"W","W","W","W","W","W",null,"W","W","W","W",null,"W","W","W","W","W","W","W"],["W","W","W","W",null,"W","W","W","W","W","W","W","W",null,"W","W","W","W",null,"W","W","W","W","W","W","W"]],"timingvisible":false,"tabcounter":26,"stave":15,"totalstaves":16,"instrument":"6guitar","selectedtuning":"6_standard","version":"13"}

Member for

1 year 5 months
Submitted by Geniii on Wed, 2020-10-07 08:07