Tensionado by genesis

Chords

01234567891011121314151617181920212223
E
B
G
D
A
E
B
0 1 2 3 4 5 6 7 8 9 10 11 12 13 14 15 16 17 18 19 20 21 22 23
(/) Slide Up  (\) Slide Down  (h) Hammer On  (p) Pull Off  (b) Bend (r) Release (v) Vibrato

Stave 1:

G|------------------------------------------
D|------------------------------------------
A|-0----0-0----0----0-0----0----0-0----0----
E|------------------------------------------

Stave 2:

G|-----------------------------------7/9-7-6-7-----
D|---------------------------------7-----------7---
A|-5----4----5----4----2----2/5------------------8-
E|-------------------------------------------------

Stave 3:

G|----------------------------------------------6-----
D|-----7h6---7/9----7-6h7-6-----------------6-----6---
A|---7-----7----------------7------4----4-7---7-----7-
E|-5--------------------------5-----------------------

Stave 4:

G|------------4---------------------------7---7/9\7-6h7-6-----
D|----------4---4-----------------------7---7-------------7---
A|-4-3-2----------2-------2-4----5----5---------------------7-
E|------------------------------------------------------------

Stave 5:

G|---------------4----------------------7p6---------------
D|-------------4---4------------------7-----7-------------
A|-4-3----2----------2----2/4----5------------5-7-7-7-7-7-
E|--------------------------------------------------------

Stave 6:

G|--------7p6----------7p6----------------6------6h7-6-----
D|------7-----7------7-----7------------6------6-------6---
A|-5------------5------------5h7----4-7------------------7-
E|---------------------------------------------------------

Stave 7:

G|--------4--------------------7/9-7-6h7-----
D|------4--------------------7-----------7---
A|-2-------------2/4-5---------------------8-
E|-------------2-----------------------------

Stave 8:

G|----------------------------------------------6-----
D|--------7p6---7/9-7-6h7-6-----------------6-----6---
A|------7-----7-------------7------4----4-7---7-----7-
E|-5--------------------------5-----------------------

Stave 9:

G|---------------4-----------------------------------
D|-------------4---4---------------------------------
A|-4-3----2----------2----2-4----7-7-7-7-7-7-7-7-7-7-
E|---------------------------------------------------

Stave 10:

G|---------------4-------------------7p6---------------
D|-------------4---4---------------7-----7-------------
A|-4-3----2----------2----2-4-5------------5-7-7-7-7-7-
E|-----------------------------------------------------

Stave 11:

G|--------7p6----------7p6----------------6------6h7-6-----
D|------7-----7------7-----7------------6------6-------6---
A|-5------------5------------5-7----4-7------------------7-
E|---------------------------------------------------------

Stave 12:

G|--------7p6----------7/9-7----------6------6h7-6-----
D|------7-----7------7--------------6------6-------6---
A|-5------------5---------------4-7------------------7-
E|-----------------------------------------------------

Stave 13:

G|--------7p6---7/9-7-6h7-6--------------6------6h7-6-----
D|------7-----7-------------7----------6------6-------6---
A|-5--------------------------7----4-7------------------7-
E|--------------------------------------------------------

Stave 14:

G|--------4--------------------7/9-7-6-7-----------------------------------------
D|------4--------------------7-----------7---------------------------------------
A|-2-------------2-4-5---------------------8-------------------------------------
E|-------------2--------------------------------5----5-5----5----5-5----5----5-5-

							http://www.guitartabcreator.com
Instruments
{"strings":[[[".","_",".",".","_",".","_",".",".","_",".","_",".",".","_",".","_"],[".","_",".",".","_",".","_",".",".","_",".","_",".",".","_",".","_"],[0,"_",0,0,"_",0,"_",0,0,"_",0,"_",0,0,"_",0,"_"],[".","_",".",".","_",".","_",".",".","_",".","_",".",".","_",".","_"]],[[".","_",".","_",".","_",".","_",".","_",".",".",".","_",".",7,"/",9,7,6,7,".","."],[".","_",".","_",".","_",".","_",".","_",".",".",".","_",7,".",".",".",".",".",".",7,"."],[5,"_",4,"_",5,"_",4,"_",2,"_",2,"/",5,"_",".",".",".",".",".",".",".",".",8],[".","_",".","_",".","_",".","_",".","_",".",".",".","_",".",".",".",".",".",".",".",".","."]],[[".",".",".",".",".",".",".",".",".","_",".",".",".",".",".",".",".","_",".","_",".",".",".",".",6,".","."],[".",".",7,"h",6,".",7,"/",9,"_",7,6,"h",7,6,".",".","_",".","_",".",".",6,".",".",6,"."],[".",7,".",".",".",7,".",".",".","_",".",".",".",".",".",7,".","_",4,"_",4,7,".",7,".",".",7],[5,".",".",".",".",".",".",".",".","_",".",".",".",".",".",".",5,"_",".","_",".",".",".",".",".",".","."]],[[".",".",".","_",".",4,".",".","_","_",".",".","_",".","_",".",".",7,".",7,"/",9,"\\",7,6,"h",7,6,".","."],[".",".",".","_",4,".",4,".","_","_",".",".","_",".","_",".",7,".",7,".",".",".",".",".",".",".",".",".",7,"."],[4,3,2,"_",".",".",".",2,"_","_",2,4,"_",5,"_",5,".",".",".",".",".",".",".",".",".",".",".",".",".",7],[".",".",".","_",".",".",".",".","_","_",".",".","_",".","_",".",".",".",".",".",".",".",".",".",".",".",".",".",".","."]],[[".",".","_",".","_",".",4,".",".","_",".",".",".","_",".","_",".",7,"p",6,".",".",".",".",".",".","."],[".",".","_",".","_",4,".",4,".","_",".",".",".","_",".","_",7,".",".",".",7,".",".",".",".",".","."],[4,3,"_",2,"_",".",".",".",2,"_",2,"/",4,"_",5,"_",".",".",".",".",".",5,7,7,7,7,7],[".",".","_",".","_",".",".",".",".","_",".",".",".","_",".","_",".",".",".",".",".",".",".",".",".",".","."]],[[".","_",".",7,"p",6,".",".","_",".",7,"p",6,".",".",".",".","_",".",".",".",6,"_",".",6,"h",7,6,".","."],[".","_",7,".",".",".",7,".","_",7,".",".",".",7,".",".",".","_",".",".",6,".","_",6,".",".",".",".",6,"."],[5,"_",".",".",".",".",".",5,"_",".",".",".",".",".",5,"h",7,"_",4,7,".",".","_",".",".",".",".",".",".",7],[".","_",".",".",".",".",".",".","_",".",".",".",".",".",".",".",".","_",".",".",".",".","_",".",".",".",".",".",".","."]],[[".","_",".",4,"_",".",".",".",".",".","_","_",".",7,"/",9,7,6,"h",7,".","."],[".","_",4,".","_",".",".",".",".",".","_","_",7,".",".",".",".",".",".",".",7,"."],[2,"_",".",".","_",".",2,"/",4,5,"_","_",".",".",".",".",".",".",".",".",".",8],[".","_",".",".","_",2,".",".",".",".","_","_",".",".",".",".",".",".",".",".",".","."]],[[".","_",".",".",".",".",".",".",".",".",".",".",".",".",".",".",".","_",".","_",".",".",".",".",6,".","."],[".","_",".",7,"p",6,".",7,"/",9,7,6,"h",7,6,".",".","_",".","_",".",".",6,".",".",6,"."],[".","_",7,".",".",".",7,".",".",".",".",".",".",".",".",7,".","_",4,"_",4,7,".",7,".",".",7],[5,"_",".",".",".",".",".",".",".",".",".",".",".",".",".",".",5,"_",".","_",".",".",".",".",".",".","."]],[[".",".","_",".","_",".",4,".",".","_",".",".","_",".",".",".",".",".",".",".",".",".","."],[".",".","_",".","_",4,".",4,".","_",".",".","_",".",".",".",".",".",".",".",".",".","."],[4,3,"_",2,"_",".",".",".",2,"_",2,4,"_",7,7,7,7,7,7,7,7,7,7],[".",".","_",".","_",".",".",".",".","_",".",".","_",".",".",".",".",".",".",".",".",".","."]],[[".",".","_",".","_",".",4,".",".","_",".",".",".","_",".",7,"p",6,".",".",".",".",".",".","."],[".",".","_",".","_",4,".",4,".","_",".",".",".","_",7,".",".",".",7,".",".",".",".",".","."],[4,3,"_",2,"_",".",".",".",2,"_",2,4,5,"_",".",".",".",".",".",5,7,7,7,7,7],[".",".","_",".","_",".",".",".",".","_",".",".",".","_",".",".",".",".",".",".",".",".",".",".","."]],[[".","_",".",7,"p",6,".",".","_",".",7,"p",6,".",".",".","_",".",".",".",6,"_",".",6,"h",7,6,".","."],[".","_",7,".",".",".",7,".","_",7,".",".",".",7,".",".","_",".",".",6,".","_",6,".",".",".",".",6,"."],[5,"_",".",".",".",".",".",5,"_",".",".",".",".",".",5,7,"_",4,7,".",".","_",".",".",".",".",".",".",7],[".","_",".",".",".",".",".",".","_",".",".",".",".",".",".",".","_",".",".",".",".","_",".",".",".",".",".",".","."]],[[".","_",".",7,"p",6,".",".","_",".",7,"/",9,7,"_",".",".",".",6,"_",".",6,"h",7,6,".","."],[".","_",7,".",".",".",7,".","_",7,".",".",".",".","_",".",".",6,".","_",6,".",".",".",".",6,"."],[5,"_",".",".",".",".",".",5,"_",".",".",".",".",".","_",4,7,".",".","_",".",".",".",".",".",".",7],[".","_",".",".",".",".",".",".","_",".",".",".",".",".","_",".",".",".",".","_",".",".",".",".",".",".","."]],[[".","_",".",7,"p",6,".",7,"/",9,7,6,"h",7,6,".",".","_",".",".",".",6,"_",".",6,"h",7,6,".","."],[".","_",7,".",".",".",7,".",".",".",".",".",".",".",".",7,".","_",".",".",6,".","_",6,".",".",".",".",6,"."],[5,"_",".",".",".",".",".",".",".",".",".",".",".",".",".",".",7,"_",4,7,".",".","_",".",".",".",".",".",".",7],[".","_",".",".",".",".",".",".",".",".",".",".",".",".",".",".",".","_",".",".",".",".","_",".",".",".",".",".",".","."]],[[".","_",".",4,"_",".",".",".",".","_","_",".",7,"/",9,7,6,7,".",".","_",".","_",".",".","_",".","_",".",".","_",".","_",".","."],[".","_",4,".","_",".",".",".",".","_","_",7,".",".",".",".",".",".",7,".","_",".","_",".",".","_",".","_",".",".","_",".","_",".","."],[2,"_",".",".","_",".",2,4,5,"_","_",".",".",".",".",".",".",".",".",8,"_",".","_",".",".","_",".","_",".",".","_",".","_",".","."],[".","_",".",".","_",2,".",".",".","_","_",".",".",".",".",".",".",".",".",".","_",5,"_",5,5,"_",5,"_",5,5,"_",5,"_",5,5]]],"numberofstrings":4,"notes":["G","D","A","E"],"capo":0,"stringnotes":["G2","D2","A1","E1"],"comments":["Stave 1:","Stave 2:","Stave 3:","Stave 4:","Stave 5:","Stave 6:","Stave 7:","Stave 8:","Stave 9:","Stave 10:","Stave 11:","Stave 12:","Stave 13:","Stave 14:","Stave 15:"],"timing":[["W",null,"W","W","W","W","W","W","W","W","W",null,"W","W",null,"W"],["W",null,"W",null,"W",null,"W",null,"W",null,"W",null,"W",null,"W","W",null,"W","W","W","W","W","W"],["W","W","W",null,"W","W","W",null,"W",null,"W","W",null,"W","W","W","W","W","W",null,"W","W","W","W","W","W","W"],["W","W","W",null,"W","W","W","W",null,null,"W","W","W","W",null,"W","W","W","W","W",null,"W",null,"W","W",null,"W","W","W","W"],["W","W","W","W",null,"W","W","W","W",null,"W",null,"W",null,"W",null,"W","W","W","W","W","W","W","W","W","W","W"],["W",null,"W","W",null,"W","W","W",null,"W","W",null,"W","W","W",null,"W",null,"W","W","W","W",null,"W","W",null,"W","W","W","W"],["W","W","W","W",null,"W","W",null,"W","W",null,"W","W","W","W","W","W","W","W","W","W","W"],["W",null,"W","W",null,"W","W","W",null,"W","W","W",null,"W","W","W","W",null,"W",null,"W","W","W","W","W","W","W"],["W","W",null,"W",null,"W","W","W","W",null,"W","W","W","W","W","W","W","W","W","W","W","W","W"],["W","W",null,"W","W","W","W","W","W",null,"W","W","W",null,"W","W",null,"W","W","W","W","W","W","W","W"],["W",null,"W","W",null,"W","W","W",null,"W","W",null,"W","W","W","W",null,"W","W","W","W",null,"W","W",null,"W","W","W","W"],["W",null,"W","W",null,"W","W","W",null,"W","W",null,"W","W","W","W","W","W","W","W","W","W",null,"W","W","W","W"],["W","W","W","W",null,"W","W","W",null,"W","W","W",null,"W","W","W","W",null,"W","W","W","W",null,"W","W",null,"W","W","W","W"],["W",null,"W","W",null,"W","W","W","W",null,null,"W","W",null,"W","W","W","W","W","W","W","W",null,"W","W",null,"W","W","W","W","W","W","W","W","W"],[]],"timingvisible":false,"tabcounter":35,"stave":13,"totalstaves":14,"instrument":"4bass","selectedtuning":"4bass","version":"13"}

Member for

1 year 5 months
Submitted by Geniii on Mon, 2020-07-13 00:06