Ipagpatawad Mo - Mayonnaise (by Genesis Del Rosario) Lead/Rhythm Part

Chords

01234567891011121314151617181920212223
E
B
G
D
A
E
B
0 1 2 3 4 5 6 7 8 9 10 11 12 13 14 15 16 17 18 19 20 21 22 23
(/) Slide Up  (\) Slide Down  (h) Hammer On  (p) Pull Off  (b) Bend (r) Release (v) Vibrato

Stave 1:

E|---------12------------12-----2--2--------4--4--------12--
B|--10-----10-----10-----10-----3-----3-----5-----5-----10--
G|--9------9------9------9------4-----------6-----------9---
D|--7-------------7-------------4-----------6---------------
A|------------------------------2-----------4---------------
E|----------------------------------------------------------

Stave 2:

E|--2--2--------4--4--------12-----2--2-----------0--0--
B|--3-----3-----5-----5-----10-----3-----3--------0--0--
G|--4-----------6-----------9------4--------------2--1--
D|--4-----------6------------------4--------------2--2--
A|--2-----------4------------------2--------------2--2--
E|------------------------------------------------0--0--

Stave 3:

E|-------------------------------------------------------------------
B|-------------------------------------------------------------------
G|-------2-----2-----2h4--2----------------2--2--2--2--4--2--4/6--6--
D|--2h4-----4-----4----------4--2-----2h4----------------------------
A|-------------------------------------------------------------------
E|-------------------------------------------------------------------

Stave 4:

E|--2--2--------4--4--------12-----2--2--------4--4--------12-----2--2--------0--0-----0--0--
B|--3-----3-----5-----5-----10-----3-----3-----5-----5-----10-----3-----3-----0--0-----0--0--
G|--4-----------6-----------9------4-----------6-----------9------4-----------2--1-----2--1--
D|--4-----------6------------------4-----------6------------------4-----------2--2-----2--2--
A|--2-----------4------------------2-----------4------------------2-----------2--2-----2--2--
E|----------------------------------------------------------------------------0--0-----0--0--

Stave 5:

E|--------------------------5--4-------------------------
B|------------------5/7--5--------5----------------------
G|-------2--4/6--4-------------------4--2--4--2--4/6--6--
D|--2h4--------------------------------------------------
A|-------------------------------------------------------
E|-------------------------------------------------------

Stave 6:

E|--------------------------------12-----12--------------------0--0-----0--0--
B|------------------5/7--5--9h10------9------9h10--7-----------0--0-----0--0--
G|-------2--4/6--4---------------------------------------4-----2--1-----2--1--
D|--2h4--------------------------------------------------4-----2--2-----2--2--
A|-------------------------------------------------------2-----2--2-----2--2--
E|-------------------------------------------------------------0--0-----0--0--

Stave 7:

E|-------------------------------------------------12------12--
B|-------------------------------4--5--4-----5/10------10------
G|--5-----------5-----4-----4h6--------------------------------
D|--5-----5-----5-----4----------------------------------------
A|--3-----5-----3-----2----------------------------------------
E|--------3----------------------------------------------------

Stave 8:

E|----------------------------12------12--------------------------------------------------
B|-------4--5--4--------5/10------10------------------------------------------------------
G|--4h6-----------6--4-----------------------------------6-----------------6-----------4--
D|-------------------------------------------7-----6-----6-----7-----6-----6-----4-----4--
A|-------------------------------------------7-----6-----4-----7-----6-----4-----4-----2--
E|-------------------------------------------5-----4-----------5-----4-----------2--------

Stave 9:

E|-----------------------------------------------
B|-----------------------------------------------
G|-----------------------------------------------
D|--2-----4-----2-----4-----2-----4-----2-----4--
A|--2-----4-----2-----4-----2-----4-----2-----4--
E|--0-----2-----0-----2-----0-----2-----0-----2--

Stave 10:

E|---------------------------
B|---------------------------
G|--9-----11-----11--13--11--
D|---------------------------
A|--7-----9------9---11--9---
E|---------------------------

Stave 11:

E|--------------------------------
B|--------------------------------
G|--9-----11-----13-----11-----9--
D|-----------------------------9--
A|--7-----9------11-----9------7--
E|--------------------------------

Stave 12:

E|--3-----3-----3-----2-----2--2--------0-----0-----0-----0-----0-----------------0-----------
B|--3-----3-----3-----4-----5--4--------0-----0-----0-----0-----0-----------5-----0--------5--
G|--0-----0-----0-----4-----4--4--------1-----2-----1-----2-----2-----4-----4-----2-----4--4--
D|--2-----0-----2-----4-----4--4--------2-----2-----2-----2-----2-----4-----------2-----4-----
A|--3-----2-----3-----2-----2--2--------2-----------2-----------0-----------4-----0--------4--
E|--------3-----------------------------0-----2-----0-----2-----------4-----------------4-----

Stave 13:

E|--------------2--2--
B|--------------5--4--
G|--2-----4-----4--4--
D|--2-----4-----4--4--
A|--------2-----2--2--
E|--2-----------------

Stave 14:

E|--0-----0--
B|--0-----0--
G|--1-----2--
D|--2-----2--
A|--2--------
E|--0-----2--

							http://www.guitartabcreator.com
Instruments
{"title":"Ipagpatawad Mo - Mayonnaise (by Genesis Del Rosario) Lead/Rhythm Part","strings":[[[".","_",12,"_",".","_",12,"_",2,2,".","_",4,4,".","_",12],[10,"_",10,"_",10,"_",10,"_",3,".",3,"_",5,".",5,"_",10],[9,"_",9,"_",9,"_",9,"_",4,".",".","_",6,".",".","_",9],[7,"_",".","_",7,"_",".","_",4,".",".","_",6,".",".","_","."],[".","_",".","_",".","_",".","_",2,".",".","_",4,".",".","_","."],[".","_",".","_",".","_",".","_",".",".",".","_",".",".",".","_","."]],[[2,2,".","_",4,4,".","_",12,"_",2,2,".","_","_",0,0],[3,".",3,"_",5,".",5,"_",10,"_",3,".",3,"_","_",0,0],[4,".",".","_",6,".",".","_",9,"_",4,".",".","_","_",2,1],[4,".",".","_",6,".",".","_",".","_",4,".",".","_","_",2,2],[2,".",".","_",4,".",".","_",".","_",2,".",".","_","_",2,2],[".",".",".","_",".",".",".","_",".","_",".",".",".","_","_",0,0]],[[".",".",".",".",".",".",".",".",".",".",".",".",".","_",".",".",".",".",".",".",".",".",".",".",".",".","."],[".",".",".",".",".",".",".",".",".",".",".",".",".","_",".",".",".",".",".",".",".",".",".",".",".",".","."],[".",".",".",2,".",2,".",2,"h",4,2,".",".","_",".",".",".",2,2,2,2,4,2,4,"/",6,6],[2,"h",4,".",4,".",4,".",".",".",".",4,2,"_",2,"h",4,".",".",".",".",".",".",".",".",".","."],[".",".",".",".",".",".",".",".",".",".",".",".",".","_",".",".",".",".",".",".",".",".",".",".",".",".","."],[".",".",".",".",".",".",".",".",".",".",".",".",".","_",".",".",".",".",".",".",".",".",".",".",".",".","."]],[[2,2,".","_",4,4,".","_",12,"_",2,2,".","_",4,4,".","_",12,"_",2,2,".","_",0,0,"_",0,0],[3,".",3,"_",5,".",5,"_",10,"_",3,".",3,"_",5,".",5,"_",10,"_",3,".",3,"_",0,0,"_",0,0],[4,".",".","_",6,".",".","_",9,"_",4,".",".","_",6,".",".","_",9,"_",4,".",".","_",2,1,"_",2,1],[4,".",".","_",6,".",".","_",".","_",4,".",".","_",6,".",".","_",".","_",4,".",".","_",2,2,"_",2,2],[2,".",".","_",4,".",".","_",".","_",2,".",".","_",4,".",".","_",".","_",2,".",".","_",2,2,"_",2,2],[".",".",".","_",".",".",".","_",".","_",".",".",".","_",".",".",".","_",".","_",".",".",".","_",0,0,"_",0,0]],[[".",".",".",".",".",".",".",".",".",".",".",".",5,4,".",".",".",".",".",".",".",".","."],[".",".",".",".",".",".",".",".",5,"/",7,5,".",".",5,".",".",".",".",".",".",".","."],[".",".",".",2,4,"/",6,4,".",".",".",".",".",".",".",4,2,4,2,4,"/",6,6],[2,"h",4,".",".",".",".",".",".",".",".",".",".",".",".",".",".",".",".",".",".",".","."],[".",".",".",".",".",".",".",".",".",".",".",".",".",".",".",".",".",".",".",".",".",".","."],[".",".",".",".",".",".",".",".",".",".",".",".",".",".",".",".",".",".",".",".",".",".","."]],[[".",".",".",".",".",".",".",".",".",".",".",".",".",".",".",12,".",12,".",".",".",".","_",".","_",0,0,"_",0,0],[".",".",".",".",".",".",".",".",5,"/",7,5,9,"h",10,".",9,".",9,"h",10,7,"_",".","_",0,0,"_",0,0],[".",".",".",2,4,"/",6,4,".",".",".",".",".",".",".",".",".",".",".",".",".",".","_",4,"_",2,1,"_",2,1],[2,"h",4,".",".",".",".",".",".",".",".",".",".",".",".",".",".",".",".",".",".",".","_",4,"_",2,2,"_",2,2],[".",".",".",".",".",".",".",".",".",".",".",".",".",".",".",".",".",".",".",".",".",".","_",2,"_",2,2,"_",2,2],[".",".",".",".",".",".",".",".",".",".",".",".",".",".",".",".",".",".",".",".",".",".","_",".","_",0,0,"_",0,0]],[[".","_",".","_",".","_",".","_",".",".",".",".",".",".","_",".",".",".",12,".",12],[".","_",".","_",".","_",".","_",".",".",".",4,5,4,"_",5,"/",10,".",10,"."],[5,"_",".","_",5,"_",4,"_",4,"h",6,".",".",".","_",".",".",".",".",".","."],[5,"_",5,"_",5,"_",4,"_",".",".",".",".",".",".","_",".",".",".",".",".","."],[3,"_",5,"_",3,"_",2,"_",".",".",".",".",".",".","_",".",".",".",".",".","."],[".","_",3,"_",".","_",".","_",".",".",".",".",".",".","_",".",".",".",".",".","."]],[[".",".",".",".",".",".",".",".",".",".",".",12,".",12,"_",".","_",".","_",".","_",".","_",".","_",".","_",".","_","."],[".",".",".",4,5,4,".",".",5,"/",10,".",10,".","_",".","_",".","_",".","_",".","_",".","_",".","_",".","_","."],[4,"h",6,".",".",".",6,4,".",".",".",".",".",".","_",".","_",".","_",6,"_",".","_",".","_",6,"_",".","_",4],[".",".",".",".",".",".",".",".",".",".",".",".",".",".","_",7,"_",6,"_",6,"_",7,"_",6,"_",6,"_",4,"_",4],[".",".",".",".",".",".",".",".",".",".",".",".",".",".","_",7,"_",6,"_",4,"_",7,"_",6,"_",4,"_",4,"_",2],[".",".",".",".",".",".",".",".",".",".",".",".",".",".","_",5,"_",4,"_",".","_",5,"_",4,"_",".","_",2,"_","."]],[[".","_",".","_",".","_",".","_",".","_",".","_",".","_","."],[".","_",".","_",".","_",".","_",".","_",".","_",".","_","."],[".","_",".","_",".","_",".","_",".","_",".","_",".","_","."],[2,"_",4,"_",2,"_",4,"_",2,"_",4,"_",2,"_",4],[2,"_",4,"_",2,"_",4,"_",2,"_",4,"_",2,"_",4],[0,"_",2,"_",0,"_",2,"_",0,"_",2,"_",0,"_",2]],[[".","_",".","_",".",".","."],[".","_",".","_",".",".","."],[9,"_",11,"_",11,13,11],[".","_",".","_",".",".","."],[7,"_",9,"_",9,11,9],[".","_",".","_",".",".","."]],[[".","_",".","_",".","_",".","_","."],[".","_",".","_",".","_",".","_","."],[9,"_",11,"_",13,"_",11,"_",9],[".","_",".","_",".","_",".","_",9],[7,"_",9,"_",11,"_",9,"_",7],[".","_",".","_",".","_",".","_","."]],[[3,"_",3,"_",3,"_",2,"_",2,2,"_","_",0,"_",0,"_",0,"_",0,"_",0,"_",".","_",".","_",0,"_",".","."],[3,"_",3,"_",3,"_",4,"_",5,4,"_","_",0,"_",0,"_",0,"_",0,"_",0,"_",".","_",5,"_",0,"_",".",5],[0,"_",0,"_",0,"_",4,"_",4,4,"_","_",1,"_",2,"_",1,"_",2,"_",2,"_",4,"_",4,"_",2,"_",4,4],[2,"_",0,"_",2,"_",4,"_",4,4,"_","_",2,"_",2,"_",2,"_",2,"_",2,"_",4,"_",".","_",2,"_",4,"."],[3,"_",2,"_",3,"_",2,"_",2,2,"_","_",2,"_",".","_",2,"_",".","_",0,"_",".","_",4,"_",0,"_",".",4],[".","_",3,"_",".","_",".","_",".",".","_","_",0,"_",2,"_",0,"_",2,"_",".","_",4,"_",".","_",".","_",4,"."]],[[".","_",".","_",2,2],[".","_",".","_",5,4],[2,"_",4,"_",4,4],[2,"_",4,"_",4,4],[".","_",2,"_",2,2],[2,"_",".","_",".","."]],[[0,"_",0],[0,"_",0],[1,"_",2],[2,"_",2],[2,"_","."],[0,"_",2]]],"numberofstrings":6,"notes":["E","B","G","D","A","E"],"capo":0,"stringnotes":["E3","B2","G2","D2","A1","E1"],"comments":["Stave 1:","Stave 2:","Stave 3:","Stave 4:","Stave 5:","Stave 6:","Stave 7:","Stave 8:","Stave 9:","Stave 10:","Stave 11:","Stave 12:","Stave 13:","Stave 14:"],"timing":[["W",null,"W",null,"W",null,"W",null,"W","W","W",null,"W","W","W","W","W","W","W"],["W","W","W",null,"W","W","W",null,"W",null,"W","W","W",null,null,"W","W"],["W","W","W","W","W","W","W","W",null,"W","W","W","W",null,"W",null,"W","W","W","W","W","W","W","W",null,"W","W"],["W","W","W",null,"W","W","W",null,"W",null,"W","W","W",null,"W","W","W",null,"W",null,"W","W","W",null,"W","W",null,"W","W"],["W",null,"W","W","W",null,"W","W","W",null,"W","W","W","W","W","W","W","W","W","W",null,"W","W"],["W",null,"W","W","W",null,"W","W","W",null,"W","W","W",null,"W","W","W","W","W",null,"W","W",null,"W",null,"W","W",null,"W","W"],["W",null,"W",null,"W",null,"W",null,"W",null,"W","W","W","W","W","W",null,"W","W","W","W"],["W",null,"W","W","W","W","W","W","W",null,"W","W","W","W",null,"W",null,"W",null,"W",null,"W",null,"W",null,"W",null,"W",null,"W"],["W",null,"W",null,"W",null,"W",null,"W",null,"W",null,"W",null,"W"],["W",null,"W",null,"W","W","W"],["W",null,"W",null,"W",null,"W",null,"W"],["W",null,"W",null,"W",null,"W",null,"W","W",null,null,"W",null,"W",null,"W",null,"W",null,"W",null,"W",null,"W",null,"W",null,"W","W"],["W",null,"W",null,"W","W"],["W",null,"W"]],"timingvisible":false,"tabcounter":3,"stave":13,"totalstaves":14,"instrument":"6guitar","selectedtuning":"6_standard","version":"13"}

Member for

1 year 5 months
Submitted by Geniii on Sat, 2019-12-07 02:30