Ipagpatawad Mo - Mayonnaise (Genesis Del Rosario)

Chords

01234567891011121314151617181920212223
E
B
G
D
A
E
B
0 1 2 3 4 5 6 7 8 9 10 11 12 13 14 15 16 17 18 19 20 21 22 23
(/) Slide Up  (\) Slide Down  (h) Hammer On  (p) Pull Off  (b) Bend (r) Release (v) Vibrato

Stave 1:

Eb|------------------------------0-----------------------------------------
Bb|--7---------------------5-----0--------7----------------------5-----10--
Gb|--6---------------------4-----2--------6--------------9-------4-----9---
Db|--7-------------2-------------2--------7--------9h11--------------------
Ab|--5--------2h4-----2/4--4--------------5-----------------2/4--4-----9---
Eb|------------------------------2-----------------------------------------

Stave 2:

Eb|--------------------------0--------------------------------0-----0-----
Bb|--7-----5--7--------5-----0--------7--------5--7-----5-----0--------0--
Gb|--6-----------6-----4-----2--------6--------------6--4-----2-----------
Db|--7--7--------------------2--------7-----7-----------------2-----------
Ab|--5-----------------4--------------5-----------------4-----------------
Eb|--------------------------2--------------------------------2--2--------

Stave 3:

Eb|--------0--------------0-----0--0-----------0-----------0-----0--0--------------0--0--
Bb|--3--------3-----5--------5--0--0-----3--------3--5--------5--0--0--------3-----0--0--
Gb|--2--------------4-----------2--1-----2-----------4-----------2--1--------2-----2--1--
Db|-----------------------------2--2-----------------------------2--2--------------2--2--
Ab|--2--2-----------4--4-----------------2--2--------4--4--------------------2-----2--2--
Eb|-----------------------------2--2-----------------------------2--2--------------0--0--

Stave 4:

Eb|--------------0-----------------0--
Bb|--7-----5-----0-----7-----5-----0--
Gb|--6-----4-----2-----6-----4-----2--
Db|--7-----------2-----7-----------2--
Ab|--5-----4-----------5-----4--------
Eb|--------------2-----------------2--

Stave 5:

Eb|--------0-----------0-----0--0-----------0-----------0-----0--0-----------0--0-----0--0--
Bb|--3--------3--5--------5--0--0-----3--------3--5--------5--0--0-----3-----0--0-----0--0--
Gb|--2-----------4-----------2--1-----2-----------4-----------2--1-----2-----2--1-----2--1--
Db|--------------------------2--2-----------------------------2--2-----------2--2-----2--2--
Ab|--2--2--------4--4-----------------2--2--------4--4-----------------2--------------------
Eb|--------------------------2--2-----------------------------2--2-----------2--2-----2--2--

Stave 6:

Eb|--------------0-----------------0-----------0--0---------------------
Bb|--7-----5-----0-----7-----5-----0-----3-----0--0---------------------
Gb|--6-----4-----2-----6-----4-----2-----2-----2--1-----2/4--4\2--------
Db|--7-----------2-----7-----------2-----------2--2------------------2--
Ab|--5-----4-----------5-----4-----------2-----2--2------------------2--
Eb|--------------2-----------------2-----------0--0------------------0--

Stave 7:

Eb|---------------------------------------------------------------------
Bb|---------------------------------------------------------------------
Gb|---------------7--------------------------------------------------5--
Db|--7h9--7h9--7-----9/10\9--7--7--7--7h9-------------------------5-----
Ab|----------------------------------------5/7--5--7--5--7--5--5--------
Eb|---------------------------------------------------------------------

Stave 8:

Eb|----------------------------------------------------------------
Bb|-------------------------------------------------------------9--
Gb|---------------7------------------------------------------------
Db|--7h9--7h9--7-----9/10\9--7--9--9/10--9/10\9-----7--6--7--9-----
Ab|----------------------------------------------------------------
Eb|----------------------------------------------------------------

Stave 9:

Eb|--0-----------------------0-----0-----0-----------------0--------------------------
Bb|--0--2/12--12--12h14--12--0-----0-----0-----------5-----0-----------5--------------
Gb|--1-----------------------1-----2-----2-----4-----4-----2-----4-----4-----2-----4--
Db|--2-----------------------2-----2-----2-----4-----------2-----4-----------2-----4--
Ab|--2-----------------------2-----------0-----------4-----0-----------4-----------2--
Eb|--0-----------------------0-----2-----------4-----------------4-----------2--------

Stave 10:

Eb|--0--------0--
Bb|--0--------0--
Gb|--1--------2--
Db|--2--------2--
Ab|--2-----------
Eb|--0--------2--

Stave 11:

Eb|--0--------------------0-----------------
Bb|--0--------------------0-----------------
Gb|--1--1/9--9--11--9-----2--2/9--9--11--9--
Db|--2--------------------2-----------------
Ab|--2--------------------------------------
Eb|--0--------------------2-----------------

Stave 12:

Eb|--0-----0--------------------------------12h14--11h12--14--------------------------------
Bb|--0-----0----------------------------12--------------------12--14--12------12------------
Gb|--1-----2------------9------9h11/13------------------------------------13------13\11--9--
Db|--2-----2-----9--11-----11---------------------------------------------------------------
Ab|--2--------------------------------------------------------------------------------------
Eb|--0-----2--------------------------------------------------------------------------------

Stave 13:

Eb|-------------------14b14--12------14--14b14--12------14--14b14--12------14--14b14--12----------
Bb|------------------------------14-----------------14-----------------14-----------------14--12--
Gb|--11b11--9------9------------------------------------------------------------------------------
Db|------------11---------------------------------------------------------------------------------
Ab|-----------------------------------------------------------------------------------------------
Eb|-----------------------------------------------------------------------------------------------

Stave 14:

Eb|--14--12--12--11--11------------------------------------------------------------------12h14--12--
Bb|----------------------14--12--12--12-----------------------------------9--10--12--14-------------
Gb|--------------------------------------13\11--9--11--9--9--------9--11----------------------------
Db|-------------------------------------------------------------9-----------------------------------
Ab|-------------------------------------------------------------------------------------------------
Eb|-------------------------------------------------------------------------------------------------

Stave 15:

Eb|--12--12--12--12--12--12--12--12--12-------------12--14--16--17/19--------------------
Bb|--------------------------------------14--12------------------------17h19--17h19--17--
Gb|--------------------------------------------------------------------------------------
Db|--------------------------------------------------------------------------------------
Ab|--------------------------------------------------------------------------------------
Eb|--------------------------------------------------------------------------------------

Stave 16:

Eb|------------------------0--
Bb|--4h5--4----------------0--
Gb|----------6--4----------1--
Db|----------------6--4\2--2--
Ab|------------------------2--
Eb|------------------------0--

							http://www.guitartabcreator.com
Instruments
{"title":"Ipagpatawad Mo - Mayonnaise (Genesis Del Rosario)","strings":[[[".","_","_",".",".",".",".",".",".",".",".","_",0,"_","_",".","_","_",".",".",".",".",".",".",".",".","_","."],[7,"_","_",".",".",".",".",".",".",".",5,"_",0,"_","_",7,"_","_",".",".",".",".",".",".",".",5,"_",10],[6,"_","_",".",".",".",".",".",".",".",4,"_",2,"_","_",6,"_","_",".",".",".",9,".",".",".",4,"_",9],[7,"_","_",".",".",".",2,".",".",".",".","_",2,"_","_",7,"_","_",9,"h",11,".",".",".",".",".","_","."],[5,"_","_",2,"h",4,".",2,"/",4,4,"_",".","_","_",5,"_","_",".",".",".",".",2,"/",4,4,"_",9],[".","_","_",".",".",".",".",".",".",".",".","_",2,"_","_",".","_","_",".",".",".",".",".",".",".",".","_","."]],[[".",".",".",".",".","_",".","_",0,"_","_",".","_",".",".",".",".",".","_",0,".",0,"."],[7,".",5,7,".","_",5,"_",0,"_","_",7,"_",".",5,7,".",5,"_",0,".",".",0],[6,".",".",".",6,"_",4,"_",2,"_","_",6,"_",".",".",".",6,4,"_",2,".",".","."],[7,7,".",".",".","_",".","_",2,"_","_",7,"_",7,".",".",".",".","_",2,".",".","."],[5,".",".",".",".","_",4,"_",".","_","_",5,"_",".",".",".",".",4,"_",".",".",".","."],[".",".",".",".",".","_",".","_",2,"_","_",".","_",".",".",".",".",".","_",2,2,".","."]],[[".",".",0,".","_",".",".",0,".",0,0,"_",".",".",0,".",".",".",0,".",0,0,"_","_",".","_",0,0],[3,".",".",3,"_",5,".",".",5,0,0,"_",3,".",".",3,5,".",".",5,0,0,"_","_",3,"_",0,0],[2,".",".",".","_",4,".",".",".",2,1,"_",2,".",".",".",4,".",".",".",2,1,"_","_",2,"_",2,1],[".",".",".",".","_",".",".",".",".",2,2,"_",".",".",".",".",".",".",".",".",2,2,"_","_",".","_",2,2],[2,2,".",".","_",4,4,".",".",".",".","_",2,2,".",".",4,4,".",".",".",".","_","_",2,"_",2,2],[".",".",".",".","_",".",".",".",".",2,2,"_",".",".",".",".",".",".",".",".",2,2,"_","_",".","_",0,0]],[[".","_",".","_",0,"_",".","_",".","_",0],[7,"_",5,"_",0,"_",7,"_",5,"_",0],[6,"_",4,"_",2,"_",6,"_",4,"_",2],[7,"_",".","_",2,"_",7,"_",".","_",2],[5,"_",4,"_",".","_",5,"_",4,"_","."],[".","_",".","_",2,"_",".","_",".","_",2]],[[".",".",0,".",".",".",0,".",0,0,"_",".",".",0,".",".",".",0,".",0,0,"_",".","_",0,0,"_",0,0],[3,".",".",3,5,".",".",5,0,0,"_",3,".",".",3,5,".",".",5,0,0,"_",3,"_",0,0,"_",0,0],[2,".",".",".",4,".",".",".",2,1,"_",2,".",".",".",4,".",".",".",2,1,"_",2,"_",2,1,"_",2,1],[".",".",".",".",".",".",".",".",2,2,"_",".",".",".",".",".",".",".",".",2,2,"_",".","_",2,2,"_",2,2],[2,2,".",".",4,4,".",".",".",".","_",2,2,".",".",4,4,".",".",".",".","_",2,"_",".",".","_",".","."],[".",".",".",".",".",".",".",".",2,2,"_",".",".",".",".",".",".",".",".",2,2,"_",".","_",2,2,"_",2,2]],[[".","_",".","_",0,"_",".","_",".","_",0,"_",".","_",0,0,"_",".",".",".",".",".",".","_","."],[7,"_",5,"_",0,"_",7,"_",5,"_",0,"_",3,"_",0,0,"_",".",".",".",".",".",".","_","."],[6,"_",4,"_",2,"_",6,"_",4,"_",2,"_",2,"_",2,1,"_",2,"/",4,4,"\\",2,"_","."],[7,"_",".","_",2,"_",7,"_",".","_",2,"_",".","_",2,2,"_",".",".",".",".",".",".","_",2],[5,"_",4,"_",".","_",5,"_",4,"_",".","_",2,"_",2,2,"_",".",".",".",".",".",".","_",2],[".","_",".","_",2,"_",".","_",".","_",2,"_",".","_",0,0,"_",".",".",".",".",".",".","_",0]],[[".",".",".",".",".",".",".",".",".",".",".",".",".",".",".",".",".",".",".",".",".",".",".",".",".",".",".",".",".","."],[".",".",".",".",".",".",".",".",".",".",".",".",".",".",".",".",".",".",".",".",".",".",".",".",".",".",".",".",".","."],[".",".",".",".",".",".",".",7,".",".",".",".",".",".",".",".",".",".",".",".",".",".",".",".",".",".",".",".",".",5],[7,"h",9,7,"h",9,7,".",9,"/",10,"\\",9,7,7,7,7,"h",9,".",".",".",".",".",".",".",".",".",5,"."],[".",".",".",".",".",".",".",".",".",".",".",".",".",".",".",".",".",".",".",5,"/",7,5,7,5,7,5,5,".","."],[".",".",".",".",".",".",".",".",".",".",".",".",".",".",".",".",".",".",".",".",".",".",".",".",".",".",".",".",".","."]],[[".",".",".",".",".",".",".",".",".",".",".",".",".",".",".",".",".",".",".",".",".",".",".","_",".",".",".",".","."],[".",".",".",".",".",".",".",".",".",".",".",".",".",".",".",".",".",".",".",".",".",".",".","_",".",".",".",".",9],[".",".",".",".",".",".",".",7,".",".",".",".",".",".",".",".",".",".",".",".",".",".",".","_",".",".",".",".","."],[7,"h",9,7,"h",9,7,".",9,"/",10,"\\",9,7,9,9,"/",10,9,"/",10,"\\",9,"_",7,6,7,9,"."],[".",".",".",".",".",".",".",".",".",".",".",".",".",".",".",".",".",".",".",".",".",".",".","_",".",".",".",".","."],[".",".",".",".",".",".",".",".",".",".",".",".",".",".",".",".",".",".",".",".",".",".",".","_",".",".",".",".","."]],[[0,".",".",".",".",".",".",".",".",0,"_",0,"_",0,"_",".","_",".","_",0,"_",".","_",".","_",".","_","."],[0,2,"/",12,12,12,"h",14,12,0,"_",0,"_",0,"_",".","_",5,"_",0,"_",".","_",5,"_",".","_","."],[1,".",".",".",".",".",".",".",".",1,"_",2,"_",2,"_",4,"_",4,"_",2,"_",4,"_",4,"_",2,"_",4],[2,".",".",".",".",".",".",".",".",2,"_",2,"_",2,"_",4,"_",".","_",2,"_",4,"_",".","_",2,"_",4],[2,".",".",".",".",".",".",".",".",2,"_",".","_",0,"_",".","_",4,"_",0,"_",".","_",4,"_",".","_",2],[0,".",".",".",".",".",".",".",".",0,"_",2,"_",".","_",4,"_",".","_",".","_",4,"_",".","_",2,"_","."]],[[0,"_","_",0],[0,"_","_",0],[1,"_","_",2],[2,"_","_",2],[2,"_","_","."],[0,"_","_",2]],[[0,".",".",".",".",".",".","_",0,".",".",".",".",".","."],[0,".",".",".",".",".",".","_",0,".",".",".",".",".","."],[1,1,"/",9,9,11,9,"_",2,2,"/",9,9,11,9],[2,".",".",".",".",".",".","_",2,".",".",".",".",".","."],[2,".",".",".",".",".",".","_",".",".",".",".",".",".","."],[0,".",".",".",".",".",".","_",2,".",".",".",".",".","."]],[[0,"_",0,"_",".",".",".",".",".",".",".",".",".",".",12,"h",14,11,"h",12,14,".",".",".",".",".",".",".",".","."],[0,"_",0,"_",".",".",".",".",".",".",".",".",".",12,".",".",".",".",".",".",".",12,14,12,".",12,".",".",".","."],[1,"_",2,"_",".",".",9,".",9,"h",11,"/",13,".",".",".",".",".",".",".",".",".",".",".",13,".",13,"\\",11,9],[2,"_",2,"_",9,11,".",11,".",".",".",".",".",".",".",".",".",".",".",".",".",".",".",".",".",".",".",".",".","."],[2,"_",".","_",".",".",".",".",".",".",".",".",".",".",".",".",".",".",".",".",".",".",".",".",".",".",".",".",".","."],[0,"_",2,"_",".",".",".",".",".",".",".",".",".",".",".",".",".",".",".",".",".",".",".",".",".",".",".",".",".","."]],[[".",".",".",".",".",".",14,"b",14,12,".",14,14,"b",14,12,".",14,14,"b",14,12,".",14,14,"b",14,12,".","."],[".",".",".",".",".",".",".",".",".",".",14,".",".",".",".",".",14,".",".",".",".",".",14,".",".",".",".",".",14,12],[11,"b",11,9,".",9,".",".",".",".",".",".",".",".",".",".",".",".",".",".",".",".",".",".",".",".",".",".",".","."],[".",".",".",".",11,".",".",".",".",".",".",".",".",".",".",".",".",".",".",".",".",".",".",".",".",".",".",".",".","."],[".",".",".",".",".",".",".",".",".",".",".",".",".",".",".",".",".",".",".",".",".",".",".",".",".",".",".",".",".","."],[".",".",".",".",".",".",".",".",".",".",".",".",".",".",".",".",".",".",".",".",".",".",".",".",".",".",".",".",".","."]],[[14,12,12,11,11,".",".",".",".",".",".",".",".",".",".",".","_",".",".",".",".",".",".",".",12,"h",14,12],[".",".",".",".",".",14,12,12,12,".",".",".",".",".",".",".","_",".",".",".",9,10,12,14,".",".",".","."],[".",".",".",".",".",".",".",".",".",13,"\\",11,9,11,9,9,"_",".",9,11,".",".",".",".",".",".",".","."],[".",".",".",".",".",".",".",".",".",".",".",".",".",".",".",".","_",9,".",".",".",".",".",".",".",".",".","."],[".",".",".",".",".",".",".",".",".",".",".",".",".",".",".",".","_",".",".",".",".",".",".",".",".",".",".","."],[".",".",".",".",".",".",".",".",".",".",".",".",".",".",".",".","_",".",".",".",".",".",".",".",".",".",".","."]],[[12,12,12,12,12,12,12,12,12,".",".","_",12,14,16,17,"/",19,".",".",".",".",".",".","."],[".",".",".",".",".",".",".",".",".",14,12,"_",".",".",".",".",".",".",17,"h",19,17,"h",19,17],[".",".",".",".",".",".",".",".",".",".",".","_",".",".",".",".",".",".",".",".",".",".",".",".","."],[".",".",".",".",".",".",".",".",".",".",".","_",".",".",".",".",".",".",".",".",".",".",".",".","."],[".",".",".",".",".",".",".",".",".",".",".","_",".",".",".",".",".",".",".",".",".",".",".",".","."],[".",".",".",".",".",".",".",".",".",".",".","_",".",".",".",".",".",".",".",".",".",".",".",".","."]],[[".",".",".",".",".",".",".",".",".",".",0],[4,"h",5,4,".",".",".",".",".",".",0],[".",".",".",".",6,4,".",".",".",".",1],[".",".",".",".",".",".",6,4,"\\",2,2],[".",".",".",".",".",".",".",".",".",".",2],[".",".",".",".",".",".",".",".",".",".",0]]],"numberofstrings":6,"notes":["DsEb","AsBb","FsGb","CsDb","GsAb","DsEb","B"],"capo":0,"stringnotes":["Eb4","Bb3","Gb3","Db3","Ab2","Eb2"],"comments":["Stave 1:","Stave 2:","Stave 3:","Stave 4:","Stave 5:","Stave 6:","Stave 7:","Stave 8:","Stave 9:","Stave 10:","Stave 11:","Stave 12:","Stave 13:","Stave 14:","Stave 15:","Stave 16:"],"timing":[["W",null,null,"W",null,"W","W","W",null,"W","W",null,"W",null,null,"W",null,null,"W",null,"W","W","W",null,"W","W",null,"W"],["W","W","W","W","W",null,"W",null,"W",null,null,"W",null,"W","W","W","W","W",null,"W","W","W","W"],["W","W","W","W",null,"W","W","W","W","W","W",null,"W","W","W","W","W","W","W","W","W","W",null,null,"W",null,"W","W"],["W",null,"W",null,"W",null,"W",null,"W",null,"W"],["W","W","W","W","W","W","W","W","W","W","W","W","W","W","W","W","W","W","W","W","W",null,"W",null,"W","W",null,"W","W"],["W","W","W",null,"W",null,"W",null,"W","W","W",null,"W",null,"W","W",null,"W",null,"W","W",null,"W",null,"W"],["W",null,"W","W",null,"W","W","W","W",null,"W",null,"W","W","W","W","W","W","W","W",null,"W","W","W","W","W","W","W","W","W"],["W",null,"W","W",null,"W","W","W","W",null,"W",null,"W","W","W","W",null,"W","W",null,"W",null,"W",null,"W","W","W","W","W"],["W","W",null,"W","W","W",null,"W","W","W",null,"W","W","W","W","W","W","W",null,"W",null,"W",null,"W",null,"W",null,"W"],["W",null,null,"W"],["W","W",null,"W","W","W","W",null,"W","W",null,"W","W","W","W"],["W",null,"W",null,"W","W","W","W","W",null,"W",null,"W","W","W",null,"W","W",null,"W","W","W","W","W","W","W","W",null,"W","W","W",null,"W"],["W",null,"W","W","W","W","W",null,"W","W","W","W","W",null,"W","W","W","W","W",null,"W","W","W","W","W",null,"W","W","W","W"],["W","W","W","W","W","W","W","W","W","W",null,"W","W","W","W","W",null,"W","W","W","W","W","W","W","W",null,"W","W"],["W","W","W","W","W","W","W","W","W","W","W","W","W","W","W","W",null,"W","W",null,"W","W","W","W","W"],["W",null,"W","W","W","W","W","W",null,"W","W"]],"timingvisible":false,"tabcounter":10,"stave":15,"totalstaves":16,"instrument":"6guitar","selectedtuning":"6_standard","version":"13"}

Member for

1 year 5 months
Submitted by Geniii on Tue, 2019-06-11 08:46