Huling Sayaw Bass tabs by Genesis

Chords

01234567891011121314151617181920212223
E
B
G
D
A
E
B
0 1 2 3 4 5 6 7 8 9 10 11 12 13 14 15 16 17 18 19 20 21 22 23
(/) Slide Up  (\) Slide Down  (h) Hammer On  (p) Pull Off  (b) Bend (r) Release (v) Vibrato

Stave 1:

G|-----------------------------------------------------------------
D|-----------------------------------------------------------------
A|-----------------------------------------------------------------
E|-0-0-0-0-0-0-0-0-0-2-2-2-2-2-2-2-5-5-5-5-5-5-5-5-5-5-5-5-5-5-5-5-

Stave 2:

G|-----------------------------------------------------------------------------
D|-----------------------------------------------------------------------------
A|-----------------------------------------------------------------------------
E|-9-9-9-9-9-9-9-9-9-12-12-12-12-12-12-12-5-5-5-5-5-5-5-5/17-17-17-17-17-17-17-

Stave 3:

G|----------------------------------------------------------------------
D|----------------------------------------------------------------------
A|----------------------------------------------------------------------
E|-9-9-9-9-9-9-9-9-9-12-12-12-12-12-12-12-5-5-5-5-5-5-5-5-5-5-5-5-5-5-5-

Stave 4:

G|--------------------------------------------------------------------------
D|--------------------------------------------------------------------------
A|-4-4----7-------------------7-6-----4-4----7---7-6----------------7-6-----
E|----------7-7----5-5----5-5-----7-5----------7-----9-7-5-5----5-5-----7-5-

Stave 5:

G|----------------------------------------------------------------------------
D|----------------------------------------------------------------------------
A|-4-4----7-------------------7-6-----4-4----7---7-6------------------7-6-----
E|----------7-7----5-5----5-5-----7-5----------7-----9-7-5-5----5-5-5-----7-5-

Stave 6:

G|----------------------------------------------------------------------
D|----------------------------------------------------------------------
A|-4-4-4---------------------4-4----7---7-6---------------------7-6-----
E|----------7-7-7----5----------------7-----9-7-5-5----5-5----5-----7-5-

Stave 7:

G|--------------
D|--------------
A|----7---------
E|------5-------

Stave 8:

G|---------------------------------
D|---------------------------------
A|---------------------------------
E|-9-9-9-9-9-9-9-9-9-9-9-9-9-0-0-0-

Stave 9:

G|--------------------------------------
D|--------------------------------------
A|--------------------------------------
E|-9-9-9-9-9-9-9-9-9-9-9-9-9-0-0-0-9----

Stave 10:

G|-----------------------------------
D|-----------------------------------
A|-----------------------------------
E|-9-9-9-9-9-9-9-9-9-9-9-9-9-0-0-0-0-

Stave 11:

G|----------------------------------
D|-2----4----7-------11----13----14-
A|----------------------------------
E|----------------------------------

							http://www.guitartabcreator.com
Instruments
{"strings":[[[".",".",".",".",".",".",".",".",".",".",".",".",".",".",".",".",".",".",".",".",".",".",".",".",".",".",".",".",".",".",".","."],[".",".",".",".",".",".",".",".",".",".",".",".",".",".",".",".",".",".",".",".",".",".",".",".",".",".",".",".",".",".",".","."],[".",".",".",".",".",".",".",".",".",".",".",".",".",".",".",".",".",".",".",".",".",".",".",".",".",".",".",".",".",".",".","."],[0,0,0,0,0,0,0,0,0,2,2,2,2,2,2,2,5,5,5,5,5,5,5,5,5,5,5,5,5,5,5,5]],[[".",".",".",".",".",".",".",".",".",".",".",".",".",".",".",".",".",".",".",".",".",".",".",".",".",".",".",".",".",".",".","."],[".",".",".",".",".",".",".",".",".",".",".",".",".",".",".",".",".",".",".",".",".",".",".",".",".",".",".",".",".",".",".","."],[".",".",".",".",".",".",".",".",".",".",".",".",".",".",".",".",".",".",".",".",".",".",".",".",".",".",".",".",".",".",".","."],[9,9,9,9,9,9,9,9,9,12,12,12,12,12,12,12,5,5,5,5,5,5,5,5,"/",17,17,17,17,17,17,17]],[[".",".",".",".",".",".",".",".",".",".",".",".",".",".",".",".",".",".",".",".",".",".",".",".",".",".",".",".",".",".","."],[".",".",".",".",".",".",".",".",".",".",".",".",".",".",".",".",".",".",".",".",".",".",".",".",".",".",".",".",".",".","."],[".",".",".",".",".",".",".",".",".",".",".",".",".",".",".",".",".",".",".",".",".",".",".",".",".",".",".",".",".",".","."],[9,9,9,9,9,9,9,9,9,12,12,12,12,12,12,12,5,5,5,5,5,5,5,5,5,5,5,5,5,5,5]],[[".",".","_",".",".",".","_",".",".","_",".",".",".",".",".",".",".",".","_",".",".",".",".",".",".",".",".","_",".",".",".",".",".","."],[".",".","_",".",".",".","_",".",".","_",".",".",".",".",".",".",".",".","_",".",".",".",".",".",".",".",".","_",".",".",".",".",".","."],[4,4,"_",7,".",".","_",".",".","_",".",".",7,6,".",".",4,4,"_",7,".",7,6,".",".",".",".","_",".",".",7,6,".","."],[".",".","_",".",7,7,"_",5,5,"_",5,5,".",".",7,5,".",".","_",".",7,".",".",9,7,5,5,"_",5,5,".",".",7,5]],[[".",".","_",".",".",".","_",".",".","_",".",".",".",".",".",".",".",".","_",".",".",".",".",".",".",".",".","_",".",".",".",".",".",".","."],[".",".","_",".",".",".","_",".",".","_",".",".",".",".",".",".",".",".","_",".",".",".",".",".",".",".",".","_",".",".",".",".",".",".","."],[4,4,"_",7,".",".","_",".",".","_",".",".",7,6,".",".",4,4,"_",7,".",7,6,".",".",".",".","_",".",".",".",7,6,".","."],[".",".","_",".",7,7,"_",5,5,"_",5,5,".",".",7,5,".",".","_",".",7,".",".",9,7,5,5,"_",5,5,5,".",".",7,5]],[[".",".",".","_",".",".",".","_",".","_","_",".",".","_",".",".",".",".",".",".",".",".","_",".",".","_",".",".",".",".","."],[".",".",".","_",".",".",".","_",".","_","_",".",".","_",".",".",".",".",".",".",".",".","_",".",".","_",".",".",".",".","."],[4,4,4,"_",".",".",".","_",".","_","_",4,4,"_",7,".",7,6,".",".",".",".","_",".",".","_",".",7,6,".","."],[".",".",".","_",7,7,7,"_",5,"_","_",".",".","_",".",7,".",".",9,7,5,5,"_",5,5,"_",5,".",".",7,5]],[["_",".",".","_","_"],["_",".",".","_","_"],["_",7,".","_","_"],["_",".",5,"_","_"]],[[".",".",".",".",".",".",".",".",".",".",".",".",".",".",".","."],[".",".",".",".",".",".",".",".",".",".",".",".",".",".",".","."],[".",".",".",".",".",".",".",".",".",".",".",".",".",".",".","."],[9,9,9,9,9,9,9,9,9,9,9,9,9,0,0,0]],[[".",".",".",".",".",".",".",".",".",".",".",".",".",".",".",".",".","_"],[".",".",".",".",".",".",".",".",".",".",".",".",".",".",".",".",".","_"],[".",".",".",".",".",".",".",".",".",".",".",".",".",".",".",".",".","_"],[9,9,9,9,9,9,9,9,9,9,9,9,9,0,0,0,9,"_"]],[[".",".",".",".",".",".",".",".",".",".",".",".",".",".",".",".","."],[".",".",".",".",".",".",".",".",".",".",".",".",".",".",".",".","."],[".",".",".",".",".",".",".",".",".",".",".",".",".",".",".",".","."],[9,9,9,9,9,9,9,9,9,9,9,9,9,0,0,0,0]],[[".","_",".","_",".","_","_",".","_",".","_","."],[2,"_",4,"_",7,"_","_",11,"_",13,"_",14],[".","_",".","_",".","_","_",".","_",".","_","."],[".","_",".","_",".","_","_",".","_",".","_","."]]],"numberofstrings":4,"notes":["G","D","A","E"],"capo":0,"stringnotes":["G2","D2","A1","E1"],"comments":["Stave 1:","Stave 2:","Stave 3:","Stave 4:","Stave 5:","Stave 6:","Stave 7:","Stave 8:","Stave 9:","Stave 10:","Stave 11:"],"timing":[[null,null,null,null,null,null,null,null,null,null,null,null,null,null,null,null,null,null,null,null,null,null,null,null,null,null,null,null,null,null,null,null],[null,null,null,null,null,null,null,null,null,null,null,null,null,null,null,null,null,null,null,null,null,null,null,null,null,null,null,null,null,null,null,null],[null,null,null,null,null,null,null,null,null,null,null,null,null,null,null,null,null,null,null,null,null,null,null,null,null,null,null,null,null,null,null],[null,null,null,null,null,null,null,null,null,null,null,null,null,null,null,null,null,null,null,null,null,null,null,null,null,null,null,null,null,null,null,null,null,null],[null,null,null,null,null,null,null,null,null,null,null,null,null,null,null,null,null,null,null,null,null,null,null,null,null,null,null,null,null,null,null,null,null,null,null],[null,null,null,null,null,null,null,null,null,null,null,null,null,null,null,null,null,null,null,null,null,null,null,null,null,null,null,null,null,null,null],[null,null,null],[null,null,null,null,null,null,null,null,null,null,null,null,null,null,null,null],[null,null,null,null,null,null,null,null,null,null,null,null,null,null,null,null,null],[null,null,null,null,null,null,null,null,null,null,null,null,null,null,null,null,null],[null,null,null,null,null,null,null,null,null,null,null,null]],"timingvisible":false,"tabcounter":12,"stave":10,"totalstaves":11,"instrument":"4bass","selectedtuning":"4bass","version":"13"}

Member for

1 year 5 months
Submitted by Geniii on Tue, 2020-05-19 23:09